Black Sabbath - Nib Chords & Tabs

 

Nib Chords & Tabs

Black Sabbath Chords & Tabs

Version: 2 Type: Bass Tab 4 ratings
1 star 2 stars 3 stars 4 stars 5 stars
comments

Nib Bass Tab

   
nib 
by blacksabbath
tabbed by dboone
doonedog1981@yahoo.com

bass tab arranged for guitar
guitar detuned 1 1/2 steps
Db Gb Cb E Ab Db

its not 100% but it might help someone else get some ideas

bass solo for guitar
e---------------------------------------------
B--------------------------------------------
G---------------------------------------------
D----------0---0-2^2-0-------------0----------
A--2-2-0-----2---------2-0-----0-2---2-0------
E--------2-----------------2-0-----------2-0--
[ Tab from: http://www.guitartabs.cc/tabs/b/black_sabbath/nib_btab_ver_2.html ]
e------------------------------------------
B------------------------------------------
G------------------------------------------
D-------0-----------0-2^2-0---0------------
A---0-2---2-0---0-2---------2---2-0---0-2--
E-2-----------2---------------------2------
                                        
                        \-----------------/
                               Repeat 
 intro
e----------------------------------------
B----------------------------------------
G----------------------------------------
D----------0------------2^0----------0---
A--2-2-0-2---4--2-2-0-2------2-2-0-2---4-
E----------------------------------------

e-----------------------
B-----------------------
G-----------------------
D------------------0----
A--2-2-0-2-----0-2------
E----------0-2----------

thats what i've got,
pretty easy?
Comments