Black Sabbath - Nib Bass Solo Chords & Tabs

 

Nib Bass Solo Chords & Tabs

Black Sabbath Chords & Tabs

Version: 1 Type: Bass Tab 2 ratings
1 star 2 stars 3 stars 4 stars 5 stars
comments

Nib Bass Solo Bass Tab

    black sabbath                NIB Bass solo
G------------------------------
D------5---5h7^p5-5h7p5--------
A--5h7---7--------------7--7---
E------------------------------

G--------------------7h9-9-7---7-7---7----------
D--------5---5h7-7h9---------9-----9---9-7-5----
A--7-5h7---7-------------------------------------
E-----------------------------------------------
        
G--------------------------------------------------
D-5h7-5-------5---------------------5---5-7h9-7----
A-------7-5h7---7-5-------5h7-5-5h7---7------------
E-------------------7-5h7--------------------------
[ Tab from: http://www.guitartabs.cc/tabs/b/black_sabbath/nib_bass_solo_btab.html ]
G------------7^-7-9-9-7-7-7---7--------------
D----5h7-7h9----------------9--9-7-5-7-9-9---
A--5-----------------------------------------
E--------------------------------------------                                                                                
              
G--7-------------------7-7-7-7-7-7---------
D----9-5h7-5---5-------------------7^-7----
A------------7---7-5h7---------------------
E------------------------------------------

G----------------------
D--5h7p5---5-----------
A--------7---7-5-5-----
E------------------0---

G-----------------------------------------------------------
D---------5-4---------8-7-5---------5-4---------------5---
A-7-7-5-7-----7-7-5-7-------7-7-5-7-----7-7-5-7----5h7-----
E-----------------------------------------------5h7---------


tabbed by casey and jordan 
Comments