Black Sabbath - Lady Evil Chords & Tabs

 

Lady Evil Chords & Tabs

Black Sabbath Chords & Tabs

Version: 1 Type: Bass Tab 0 ratings
1 star 2 stars 3 stars 4 stars 5 stars
comments

Lady Evil Bass Tab

from - Michael James 

Lady Evil - Bass
Black Sabbath - Heaven And Hell


|---------------------------------
|---------------------------------
|---------------------------------
|-0-1-2-3-3-3-3-3-3-3-3-3-3-3-3-3-

|----------------------------------------------------------
|-----------5-3--------------------------5-3---------------
|---------------3-5---1-----3----------------5-4-3-1--1----
|-0-1-2-3-3---------3-----3----0-1-2-3-3-----------------3-

|-----------------------
|-----------------------
|------------1----3-----
|-0-1-2-3---------------

|---------------------------------------------------------------
|---------------------------------------------------------------
|-----1---1---------1---5-4-3-------1---1---------1---5-4-3-----
|-3-3---3---1--3--3---3-------1-3-3---3---1--3--3---3-------1-3-

|-------------------------------------------------------------
|---------------5-3-------------------------------3---3---3-5-
|-1--1-1-1-1--------5-4-3-1---3-3-3-3---1-----------5---5-----
|------------3--------------3---------------1--3--------------
[ Tab from: http://www.guitartabs.cc/tabs/b/black_sabbath/lady_evil_btab.html ]
|--------------------------------
|--------------------------------
|-1--1-1-1-1---------------------
|------------1--1-1-1-1-1-1-1-1--

During Solo: 1 step up
|---------------------------------------------------------------
|---------------------------------------------------------------
|-----3---3---------3---7-6-5-------3---3---------3---7-6-5-----
|-5-5---5---3--5--5---5-------3-5-5---5---3--5--5---5-------3-5-

slow
|----------------------------------------------------------
|---------------567--------3---------------567---------3---
|--5---5--5--5----------------5---5--5--5------------------
|----------------------5-5------------------------5-5------

|----------------------------------------------------------
|-----------789--------5-----------------------------------
|-7---7-7-7---------------7---7-7-7--5-5-5-5-5-5-5-5-5-----
|----------------7--7--------------------------------------

change of tempo:
|------------3----------------------------3----------------
|----5---3-----5------3-----------5---3--------------------
|-----------------3h5-----------------------3---1----------
|-3----3---3------------3-6-5-3-3---3---3------------------

Ending
|----------------
|----------------
|-----3-5-3------
|-3-6-------6-3--

Comments