Black Sabbath - Killing Yourself To Live Chords & Tabs

 

Killing Yourself To Live Chords & Tabs

Black Sabbath Chords & Tabs

Version: 1 Type: Tab 0 ratings
1 star 2 stars 3 stars 4 stars 5 stars
comments

Killing Yourself To Live Tab

   
Black Sabbath-killing yourself to live

Tuning:C#/F#/B/E/G#/C#      
                         Submitted by:Dillon Shifflett
Intro:
----------------------------------------------------|
----------------------------------------------------|
-------------------5--5-----------------------------|
------------7--7---5--5---7------------5--7-7-------|
------3-----7--7---3--3---7--------0---3--5-5---7---|
-0--3---3---5--5----------5----0-3--------------5---|
[ Tab from: http://www.guitartabs.cc/tabs/b/black_sabbath/killing_yourself_to_live_tab.html ]
verse:
---------------------------------|
------------------------------3--|
------------------------------2--|
----3-----2-----3--------0h2-----|
-5-----5-----5-----5--3----------|
---------------------------------|

---------------------------------|
---------------------------------|
----------------------5~~--------|
----3-----2-----5----------------|
-5-----5-----5-----5-------------|
---------------------------------|

chourus:
-----------------------------------------------------|
-----------------------------------------------------|
-----------------------------------------------------|
--------------------------10-------------------------|
-12-12-12-12--12--10--10--8--10--9-9-9-9--9--8--8--7-|
-10-10-10-10--10--8---8------8---7-7-7-7--7--6--6--5-|



That is about all that I know of that song. I think it sounds pretty 
accurate. enjoy.
Comments