Black Sabbath - Johnny Blade Chords & Tabs

 

Johnny Blade Chords & Tabs

Black Sabbath Chords & Tabs

Version: 1 Type: Bass Tab 0 ratings
1 star 2 stars 3 stars 4 stars 5 stars
comments

Johnny Blade Bass Tab

Title:Johnny Blade
Artist:Black Sabbath
Album:Never Say Die!
Tuning:EADG
Tabber:Justin van Uum

Geezer throws very much licks in,so i haven't tabbed them.
These are the main things.

intro
G----------------|
D----------------|
A----------------|
E-1--1-1--1--1-1-|

Main Riff
G---------------|
D--------------:|
A--------2-1---:|
E-1-1-1-1---4-1-|

Chorus:
G----------------------|
D---------------------:|
A-1-1-1-1-1-----2-1---:|
E------4---1-1-1---4-1-|

Johnny Blade...........
G-------------------|
D------------55555-:|
A-------55555------:|
E--33333------------|

Main Riff gets higher
G---------------|
D--------------:|
A--------4-3---:|
E-3-3-3-3---6-3-|
[ Tab from: http://www.guitartabs.cc/tabs/b/black_sabbath/johnny_blade_btab.html ]
Chorus 2
G------------------------|
D-----------------------:|
A-3-3-3-1-3-3-3---4-3---:|
E--------------3-3---6-3-|

Johnny Blade
G---------------|
D---------7777-:|
A-----7777-----:|
E-5555----------|

Another kind of main riff,I call it bridge
G-----------------------------------------------|
D----------------------------------------------:|
A------------------3h2---5-5-5-3-5-5-5-3-5h6-5-:|
E-5-5-5-5-3-5-5-3-5---5-3---------------5-----5-|

He's the one........
G-----------------------------|
D----------------------------:|
A------------5-5---3-5-5h6-5-:|
E-5-5---3-3-----5-5---5-----5-|

during solo.try to variate,p.e. play the f-note 6 times...etc.etc.
G---------------|
D--------0--3-2-|
A-0-023-3-2-----|
E---------------|
I hope this tab works...............
Comments