Black Sabbath - Jerusalem Chords & Tabs

 

Jerusalem Chords & Tabs

Black Sabbath Chords & Tabs

Version: 2 Type: Tab 0 ratings
1 star 2 stars 3 stars 4 stars 5 stars
comments

Jerusalem Tab

   
Artist: Black Sabbath
Song: Jerusalem(alternate version)
Tabbed by: John Leadman


Jerusalem (Alternate Version) (1990)
Black Sabbath

|------------------------------------------|
|------------------------------------------|
|-------------------------4-5---4----------|
|-----------------------7-4-5---4-7-5------|
|-7-7-7-7-7--7-7-7-7-7--7---------7-5------|
|-5-5-5-5-5--5-5-5-5-5---------------------|

VERSE: Vocals & Bass only.

"A thousond..."
|---------0--------------0---------------0-2-------3-----2------------|
|-------1---1--------------3-----------3-----3-------3-------3--------|
|-----0-------0--------2-----2-------2---------2-------2-------2------|
|---2-----------2----0-------------0-------------0---------------0----|
|-3----------------2------------2-------------------------------------|
|---------------------------------------------------------------------|

"Where will you turn if it all goes wrong"
|----------------------------------------|
|----------------------------------------|
|-------------------------4-5---4--------|
|-----------------------7-4-5---4-7-5----|
|-7-7-7-7-7--7-7-7-7-7--7---------7-5----|
|-5-5-5-5-5--5-5-5-5-5-------------------|

Fig E
           "Everybody knows your name"       1st time only    || 2nd time:
|-3-3-3--2--||------------------------------|-------0-2-------||-33333-22222------|
|-3-3-3--3--||-------3----------3---------3-|-----3-----3-----||-33333-33333--X2--|
|-2-2-2--2--||-----3----------0---------3---|---2---------2---||-22222-22222------|
|-0-0-0--0--||---3----------2---------3-----|-0-------------0-||-00000-00000------|
|-----------||-1----------3---------1-------|-----------------||------------------|
|-----------||------------------------------|-----------------||------------------|

Classical Guitar Solo:
|------------------|-12-10-------12-10-------10-------------|
|-------7-8-10-/12-|-------13-12-------13-12----13-12-10-12-|
|-9-9-9------------|----------------------------------------|
|------------------|----------------------------------------|
|------------------|----------------------------------------|
|------------------|----------------------------------------|
[ Tab from: http://www.guitartabs.cc/tabs/b/black_sabbath/jerusalem_tab_ver_2.html ]
|--------------------------------------|----------------------------------------------|
|-------------7-8---10-12-10---8-7-8---|-7------------7-8-10-/12-12-12-12-13-12-10-12-|
|-9-9-9-9---9------------------------7-|----------9-9---------------------------------|
|--------------------------------------|----------------------------------------------|
|--------------------------------------|----------------------------------------------|
|--------------------------------------|----------------------------------------------|
                  rake
----------------|--10-8-7----12---10----------------------------------|
--10-8-7-10-8---|-10------10---------13-12-10----12-10----------------|
--------------9-|-9---------------------------12-------12-11-9--------|
----------------|-----------------------------------------------------|
----------------|-----------------------------------------------------|
----------------|-----------------------------------------------------|

|-------------------------|
|-7h8-7~--8-----8-7-------|
|-----------9-------9-7---|
|-------------------------| end solo
|-------------------------|
|-------------------------|

Backing For Solo:
|------------------------------------------------------------|
|------------------------------------------------------------|
|------------------------------------------------------------|
|-9--9--7-9----7--7--5-7---9--9--7-9-------------------------|
|-7--7--7-7----5--5--5-5---7--7--7-7--------5h7-5--------5---|
|--------------------------------------8-------------5h7-----|

"When a thousand souls..."
|------------------------------|-------0-2---------------------------|
|-------3----------3---------3-|-----3-----3-------------------------|
|-----3----------0---------3---|---2---------2-----------------------|
|---3----------2---------3-----|-0-------------0---------------------|
|-1----------3---------1-------|-------------------------------------|
|------------------------------|-------------------------------------|

|------------------------------------------|
|------------------------------------------|
|-------------------------4-5---4----------|
|-----------------------7-4-5---4-7-5------|
|-7-7-7-7-7--7-7-7-7-7--7---------7-5------|
|-5-5-5-5-5--5-5-5-5-5---------------------|
Comments