Black Sabbath - Iron Man Chords & Tabs

 

Iron Man Chords & Tabs

Black Sabbath Chords & Tabs

Version: 5 Type: Tab 2 ratings
1 star 2 stars 3 stars 4 stars 5 stars
comments

Iron Man Tab

   
By:Michael Venditti
Iron Man by Black Sabbath
This is my first tab and I'm 100% sure it's correct!!
This is the only Iron Man tab with both solos.
I've spent countless hours on creating this tab and checked over it.
Please rate me well as I deserve!!! thanks and if any questions,
my email is mike.v13@hotmail.com.


Legend:
Bend-b
Hammer-h
Pull-off-p
Slide-/
Bend and then Pull-bp

Intro:

e)-------
B)-------
G)-------
D)-------   X3
A)-------
E)-1bp0--


e)------------------------------------
B)------------------------------------
G)------------------------------------
D)---7-7/9-9-12/11-12/11-12/11-5-5/7-7     X7
A)-9-5-5/7-7-10/9--10/9--10/9--7-7/9-9
E)-7---------------------------------- 
  Has he lost his mind...

Rhythm Fig.1:

e)---------------------------------------------------------------
B)---------------------------------------------------------------
G)---------------------------------------------------------------
D)---------------------------------------------------------------
A)---5------------------------5------------------------5----------
E)-7~-7-6-5-5-5--0-4-5-5-6-7-7-7-6-5-5-5--0-4-5-5-6-7-7-7-6-5-5-5
 
Verse 1:

e)------------------------------------
B)------------------------------------
G)------------------------------------
D)---7-7/9-9-12/11-12/11-12/11-7-7/9-9   X4
A)-9-5-5/7-7-10/9--10/9--10/9--5-5/7-7
E)-7----------------------------------
  He was turned turned to steal...

Fill 1:

e)-------
B)-------
G)-------
D)-9--7--
A)-7--5--
E)-------
 Nobody wants him..


Rhythm Fig.2:

e)--------------------
B)--------------------
G)---------------2-3-4
D)-4-4----2-2-3-4-----   X2
A)-2-2-2h5------------
E)--------------------

Repeat from Fill 1

Verse 2:

e)--------------------------------------
B)--------------------------------------
G)--------------------------------------
D)---7-7/9-9--12/11-12/11-12/11--7-7/9-9    X4
A)-9-5-5/7-7--10/9--10/9--10/9---5-5/7-7
E)-7------------------------------------
 Now the time is here...

Fill 1:

e)-------
B)-------
G)-------
D)-9--7--
A)-7--5--
E)-------
Nobody wants him...

e)--------------------
B)--------------------
G)---------------2-3-4
D)-4-4----2-2-3-4-----   X2
A)-2-2-2h5------------
E)--------------------

Repeat From Fill 1


Bridge:

e)------------------
B)------------------
G)-6p4--------------
D)----6-5-4-2-------    X2
A)-----------2-2h4-4
E)-------------------


1st Solo:


e)-----------------------------------------------------------
B)-----------------------------------------------------------
G)---------------------------------------------9-------------
D)----------------------------------9--9--9h11-----11--11p9--
A)-------7--7h9--9p7-----7--9--9/11--------------------------
E)--7-h9--------------9--------------------------------------


e)----------------------------------------9---------------------
B)-----------------------------------9------12p9----9-----------
G)-----9--9----------------------11--11b---------11-9-9--9b-----
D)----------11p9----9h11--11------------------------------------
A)-11------------11---------------------------------------------
E)--------------------------------------------------------------


e)-------------------------9--------------------------------------
B)----------------------9----12p9-------9-12p9------9--12-12b-----
G)--------------9--11b--9---------11p9---------11p9-------12b-----
D)-11--9--9h11----------------------------------------------------
A)----------------------------------------------------------------
E)----------------------------------------------------------------

e)-9-----------12b-----12b14p12-12b13p12-9h12p9----9---------
B)---12--9--9-----------------------------------12---12-12b--
G)-----------------------------------------------------------
D)-----------------------------------------------------------
A)-----------------------------------------------------------
E)-----------------------------------------------------------
[ Tab from: http://www.guitartabs.cc/tabs/b/black_sabbath/iron_man_tab_ver_5.html ]
e)-----9---------------------------------------------------
B)-12b---12p9------9--12p9---------------------------------
G)------------11b--9--------11--11p9-----9--9--------------
D)------------------------------------11------11p9----9h11-
A)-------------------------------------------------11------
E)---------------------------------------------------------

e)------------------------------------------------------------
B)----------------------9-------------------------------------
G)-9--9--------------9----------------------------------------
D)------11p9----9h11-------9h11--9h11--9h11--9h11--9h11--9h11-
A)-----------11-----------------------------------------------
E)------------------------------------------------------------

e)-----------------------------------
B)-----------------------------------
G)-----------------------------------
D)-9h11--9h11--9h11--9h11--9h11--9h11
A)-----------------------------------
E)-----------------------------------


Rhythm Fig.3:


e)---------------------
B)---------------------
G)---------------------
D)-11-9----------------    X2
A)-----11-10-9-7-------
E)--------------7-7-9-9

Rhythm Fig.2:

e)--------------------
B)--------------------
G)---------------2-3-4
D)-4-4----2-2-3-4-----    X4
A)-2-2-2h5------------
E)--------------------

Verse 3:

e)-------------------------------------
B)-------------------------------------
G)-------------------------------------     
D)---7-7/9-9--12/11-12/11-12/11-7-7/9-9    X4
A)-9-5-5/7-7--10/9--10/9--10/9--5-5/7-7
E)-7-----------------------------------
Heavy boots of lead...

Rhythm Fig.1:

e)------------------------------------------------------------
B)------------------------------------------------------------
G)------------------------------------------------------------
D)------------------------------------------------------------
A)----5---------------------5-----------------------5---------
E)-7~~-7-6-5-5-5-0-4-5-5-6-7-7-6-5-5-5-0-4-5-5-6-7~~-7-6-5-5-5

Back to Intro:

e)-----
B)-----
G)-----   X2
D)-----
A)-----
E)-1bp0


Bridge#2:

e)------------------------------
B)------------------------------
G)------------------------------      X2
D)--------------------4-5-4-5-4-
A)-7p5h7--5h7p5--7h5h7---------5
E)------------------------------


2nd Solo:

e)-------------------------------------------------------------
B)-------------------------------------------------------------
G)---------------------7-----7--9--9b-------9b---9b-----9--
D)--------5------7/9-----9-------------------------------------
A)--5/7-------7------------------------------------------------
E)-------------------------------------------------------------

e)--------------------------------10--10h12--12b--12b--12b12p10-12p10--
B)--------------------8----10/12---------------------------------------
G)--7-----7--h9~~--------9---------------------------------------------
D)------9--------------------------------------------------------------
A)---------------------------------------------------------------------
E)---------------------------------------------------------------------

e)-10-------------------------------------------------------
B)----12--12\10--8/10--8------------------------------------
G)--------------------------9--7----------------------------
D)---------------------------------9\7--5--7p5----5h7-------
A)---------------------------------------------7------5h7---
E)----------------------------------------------------------

e)------------------------------------------------------------
B)------------------------------------------------------------
G)--------------7-----7--9--9b-------9b-------9b--------9b----
D)--5--7--7/9-----9-------------------------------------------
A)------------------------------------------------------------
E)------------------------------------------------------------

e)-----------------------------------------------------------
B)-----------------------------------------------------------
G)--7h9p7----7-----------------------------------------------
D)--------9-----9/7--5--7---5--7--7b-----7b-----7b------5----
A)---------------------------------------------------------7-
E)-----------------------------------------------------------

Ending:

e)--------------------------------
B)--------------------------------
G)--------------------------------    X3
D)----------------------4-5-4-5-4-
A)-7p5h7---5h7p5---7p5h7---------5
E)--------------------------------

e)------
B)------
G)------
D)------
A)-7-5-7
E)------
Comments