Black Sabbath - Iron Man Chords & Tabs

 

Iron Man Chords & Tabs

Black Sabbath Chords & Tabs

Version: 13 Type: Tab 0 ratings
1 star 2 stars 3 stars 4 stars 5 stars
comments

Iron Man Tab

-------------------------------------------------------------------------------
			     IRON MAN - Black Sabbath
-------------------------------------------------------------------------------

By: ManInTheBox13
This is everything up until the solo.
Intro:
e|--------------------------------|
B|--------------------------------|
G|--------------------------------|
D|-2b-----2b--------2b------------|
A|-0------0---------0-------------|
E|--------------------------------|
Main Riff:
e|----------------------------------------------|
B|----------------------------------------------|
G|----------------------------------------------|
D|----------------------------------------------| x2
A|-9/12-12/14-/17\16/17\16/17\12-12-12/14-------|
E|-7/10-10/12-/15\14/15\14/15\10 10-10/12/15\---|
Verse:
e|----------------------------------------------|
B|----------------------------------------------|
G|----------------------------------------------|
D|----------------------------------------------| x2
A|----5--5/7--7--4/5\4/5\4/5--------------------|
E|-7--------------------------5--5/7--/15\------|

e|----------------------------------------------|
B|----------------------------------------------|
G|----------------------------------------------|
D|----------------------------------------------| 
A|-9/12-12/14-/17\16/17\16/17\12-12-12/14-------|
E|-7/10-10/12-/15\14/15\14/15\10 10-10/12/15\---|

e|----------------------------------------------|
B|----------------------------------------------|
G|----------------------------------------------|
D|----------------------------------------------| x2
A|----5--5/7--7--4/5\4/5\4/5--------------------|
E|-7--------------------------5--5/7--/15\------|

e|----------------------------------------------|
B|----------------------------------------------|
G|----------------------------------------------|
D|----------------------------------------------| x2
A|------5b--------------------------------------|
E|-7-7-----7--6--5-5-5---0-4--5--5--5-----------|

e|----------------------------------------------|
B|----------------------------------------------|
G|----------------------------------------------|
D|----------------------------------------------|
A|------5b--------------------------------------|
E|-7-7-----7--6-5-5-5---------------------------|
[ Tab from: http://www.guitartabs.cc/tabs/b/black_sabbath/iron_man_tab_ver_13.html ]
e|----------------------------------------------|
B|----------------------------------------------|
G|----------------------------------------------|
D|----------------------------------------------| x2
A|-9/12-12/14-/17\16/17\16/17\12-12-12/14-------|
E|-7/10-10/12-/15\14/15\14/15\10 10-10/12/15\---|
2nd Verse:
e|----------------------------------------------|
B|----------------------------------------------|
G|----------------------------------------------|
D|----------------------------------------------| x2
A|----5--5/7--7--4/5\4/5\4/5--------------------|
E|-7--------------------------5--5/7--/15\------|

e|-------------------------------------------------------------|
B|-------------------------------------------------------------|
G|-------------------------------------------------------------|
D|------------------------------7-8-9-------------------7-8-9--| x2
A|-14----12----9-9-----7--7-8-9--------9-9-----7--7-8-9--------|
E|-12----10----7-7--7-9----------------7-7--7-9----------------|

e|----------------------------------------------|
B|----------------------------------------------|
G|----------------------------------------------|
D|----------------------------------------------| x2
A|-9/12-12/14-/17\16/17\16/17\12-12-12/14-------|
E|-7/10-10/12-/15\14/15\14/15\10 10-10/12/15\---|
3rd Verse:
e|----------------------------------------------|
B|----------------------------------------------|
G|----------------------------------------------|
D|----------------------------------------------| x2
A|----5--5/7--7--4/5\4/5\4/5--------------------|
E|-7--------------------------5--5/7--/15\------|

e|-------------------------------------------------------------|
B|-------------------------------------------------------------|
G|-------------------------------------------------------------|
D|------------------------------7-8-9-------------------7-8-9--| x2
A|-14----12----9-9-----7--7-8-9--------9-9-----7--7-8-9--------|
E|-12----10----7-7--7-9----------------7-7--7-9----------------|
1st Interlude before 1st solo
e|-----------------------------|
B|-----------------------------|
G|-----------------------------|
D|-11-9------------------------|
A|------11--10--9--7-----------|
E|-------------------7-7/9-9---|

Thats all up until the solo. godsmack_1313@hotmail.com
===============================================================================
Comments