Black Sabbath - Iron Man Chords & Tabs

 

Iron Man Chords & Tabs

Black Sabbath Chords & Tabs

Version: 12 Type: Tab 0 ratings
1 star 2 stars 3 stars 4 stars 5 stars
comments

Iron Man Tab

                       Ironman Solo                             


                          F. Iommi,J. Osbourne,W. Ward, and T. Butler
Distorted Guitar


                                                          
E||---------------------------|--------------------------|
B||---------------------------|-----------------------5--|
G||---------------------------|-----------4--4--4h-6-----|
D||--------2--2h-4--4h2----2--|--4--4/-6-----------------|
A||--2h-4---------------4-----|--------------------------|
E||---------------------------|--------------------------|


                                                           
----------------------------|---------------------9-------|
--5---------5--5------------|-----------------9------12h9-|
--6--6h4----------6h4----4h-|--6--6~---9--11--11b---------|
---------6------------6-----|-----------------------------|
----------------------------|-----------------------------|
----------------------------|-----------------------------|


                                                               
-----------------------------|----------------9---------------|
------9----------------------|-------------9-----12h9------9--|
--11--9--9--9h-10------------|------9--11b-9----------11h9----|
-------------------11--9--9h-|--11----------------------------|
-----------------------------|--------------------------------|
-----------------------------|--------------------------------|

[ Tab from: http://www.guitartabs.cc/tabs/b/black_sabbath/iron_man_tab_ver_12.html ]
                                                                
--------------------------9------|--9------------12b---12r-12r-|
--12h9-9--9--12h9------9-----12b-|-----12--9--9----------------|
------------------11h9-------12b-|-----------------------------|
---------------------------------|-----------------------------|
---------------------------------|-----------------------------|
---------------------------------|-----------------------------|


                                                                  
--9h12h9-----9----------------|--9-------------------------------|
---------12-----12--12b---12b-|-----12h9-------------------------|
------------------------------|----------11--11h9-----9--9-------|
------------------------------|-------------------11--------11h9-|
------------------------------|----------------------------------|
------------------------------|----------------------------------|


                                                           
-------------------------------|--------------------------|
-------------------------------|---------0----------------|
-------------9--9--------------|------9-------------------|
------9h-11--------11h9-----9h-|--11--------9h---11----9h-|
--11--------------------11-----|--------------------------|
-------------------------------|--------------------------|


                                                  
------------------------|------------------------|
------------------------|------------------------|
------------------------|------------------------|
--11----9h---11----9h---|--11----9h---11----9h---|
------------------------|------------------------|
------------------------|------------------------|


                                                                  
-------------------------|------------------------|-------------||
-------------------------|------------------------|-------------||
-------------------------|------------------------|-------------||
--11----9h-11----9h---11-|--9h---11----9h---11----|--9h---11----||
-------------------------|------------------------|-------------||
-------------------------|------------------------|-------------||
Comments