Black Sabbath - Iron Man Chords & Tabs

 

Iron Man Chords & Tabs

Black Sabbath Chords & Tabs

Version: 11 Type: Tab 0 ratings
1 star 2 stars 3 stars 4 stars 5 stars
comments

Iron Man Tab

   
Hey everyone this is my first tab bare with me.



                        (slide here)   
e|-------------------------------------------------------
b|-------------------------------------------------------
g|-------------------------------------------------------
d|--4---7---7---9---9---12-11-12-11-12-11---7---7---9---9
a|--2---5---5---7---7---10-9- 10- 9-10- 9---5---5---7---7
E|-------------------------------------------------------

(repeat)

Part B
[ Tab from: http://www.guitartabs.cc/tabs/b/black_sabbath/iron_man_tab_ver_11.html ]
e|----------------------------------------
b|----------------------------------------
g|----------------------------------------      (play twice)
d|--4-4-4--7--4--3--2-2-2-----------------
a|--2-2-2--5--2--1--0-0-0-2--6-7-8--------
E|------------------------0--4-5-6--------


Part C

e|-------------------------------------------------------
b|-------------------------------------------------------
g|-------------------------------------------------------
d|--9--------5----7--4-4-4------4-4---------------7-8-9--
a|--7--7-7-7---7--5--------7-5--2-2----5-7--7-8-9--------
E|-----------------------------------7-------------------

(Play this part twice again)


        Well there ya go. Any problems or feedback   E-mail joefo48@hotmail.com

Comments