Black Sabbath - Iron Man Chords & Tabs

 

Iron Man Chords & Tabs

Black Sabbath Chords & Tabs

Version: 10 Type: Bass Tab 0 ratings
1 star 2 stars 3 stars 4 stars 5 stars
comments

Iron Man Bass Tab

  Intro

1----------------------------------|
2---------------5-4-5-4-54---------|   guitar does first
3--2---5--5-7-7------------5-5-7-7-|   one then bass kicks in
4----------------------------------|

  Verse

1----------------------------------|
2---------------5-4-5-4-54---------|    5X
3--2---5--5-7-7------------5-5-7-7-|
4----------------------------------|

  Chorus

1---------------------------  -----------------|
2---------------------------  -----------------|
3-----5---------------------2X-----5-----------|
4-7-7---7-6-5-5-5--0-4-55-6-  -7-7---7-6-5-5-5-|

  Verse

1----------------------------------|
2---------------5-4-5-4-54---------|  4X
3--2---5--5-7-7------------5-5-7-7-|
4----------------------------------|

  Chorus

1-----9-7----------------------  -------------------------|
2----9---9-7-5----------4-5-4--  -------------------7-8-9-|   2X
3-7-----------5--------5-----5-  -------5-7--7-8-9--------|
4-------------------7----------  -7-7--7------------------|

1-----9-7----------------------  -------------------------|
2----9---9-7-5----------4-5-4--  -------------------7-8-9-|   2X
3-7-----------5--------5-----5-  -------5-7--7-8-9--------|
4-------------------7----------  -7-7--7------------------|

  Verse

1----------------------------------|
2---------------5-4-5-4-54---------|  4X
3--2---5--5-7-7------------5-5-7-7-|
4----------------------------------|

  Chorus

1-----9-7----------------------  -------------------------|
2----9---9-7-5----------4-5-4--  -------------------7-8-9-|   2X
3-7-----------5--------5-----5-  -------5-7--7-8-9--------|
4-------------------7----------  -7-7--7------------------|

1-----9-7----------------------  -------------------------|
2----9---9-7-5----------4-5-4--  -------------------7-8-9-|   2X
3-7-----------5--------5-----5-  -------5-7--7-8-9--------|
4-------------------7----------  -7-7--7------------------|

  Bridge

1------------------------|
2-11-9-------------------|  2X
3------11-10-9-7---------|
4----------------7-7h9-9-|

  During Solo

1----------------------------------------------------------------|
2-----------------------------------------------9h11-11-11-11-11-|
3--------------------------------------7-7-9-11------------------|
4-9-9-9-9-9-7h9-9-9-9-9-7h9-9-9-9-9-7h9-9------------------------|
[ Tab from: http://www.guitartabs.cc/tabs/b/black_sabbath/iron_man_btab_ver_10.html ]
1----------------------12-11-9------------------------------------------|
2-9h11-11-11-11-11-9h11--------12-11-9--11-11-11-11-11-9h11-11-11-11-11-|
3-----------------------------------------------------------------------|
4-----------------------------------------------------------------------|

1-----9----------------------------------------------------------------|
2-9h11-11-9-7------------------------------9h11-9h11-9h11-9h11-9h11-11-|
3-------------11-9-7---------------------------------------------------|
4--------------------7h9-7h9-7h9-7h9-7h9-9-----------------------------|

  Bridge Out

1------------------------|
2-11-9-------------------|  2X
3------11-10-9-7---------|
4----------------7-7h9-9-|

1-------------------------|
2-------------------7-8-9-|  4X
3-------5-7--7-8-9--------|
4-7-7--7------------------|

  Verse

1----------------------------------|
2---------------5-4-5-4-54---------|  4X
3--2---5--5-7-7------------5-5-7-7-|
4----------------------------------|

  Chorus

1---------------------------  -----------------|
2---------------------------  -----------------|
3-----5---------------------2X-----5-----------|
4-7-7---7-6-5-5-5--0-4-55-6-  -7-7---7-6-5-5-5-|

  Bridge

1------------------------------------------------------------------------|
2------------------------------------------------------------------------| 2X
3-7777777777777777777777777777777777777777777777777777777777777777777777-|
4------------------------------------------------------------------------|

  During Solo

1------------------------------------------------|
2------------------------------------------------| 5X
3-7-5-7777777-5-3-5555555-3-2-3333333-2222222222-|
4------------------------------------------------|

  Out

1-------------------------------------------------|
2-------------------------------------------------|
3-7-5-7777777-5-3-5555555-3-2-3333333-23-2--2-3-5-|
4-----------------------------------------3-------|

1------------------------------------------------|
2------------------------------------------------|
3-7-5-7777777-5-3-5555555-3-2-3333333-23-2---3-5-|
4-----------------------------------------3-5----|

1--------------------------------------------------|
2--------------------------------------------------|
3-7-5-7777777-5-3-5555555-3-2-3333333-23-23--2-3-5-|
4------------------------------------------3-------|

  End
Comments