Black Sabbath - Hand Of Doom Chords & Tabs

 

Hand Of Doom Chords & Tabs

Black Sabbath Chords & Tabs

Version: 1 Type: Tab 1 rating
1 star 2 stars 3 stars 4 stars 5 stars
comments

Hand Of Doom Tab

Hand of Doom
*************************
Black Sabbath  (Paranoid)

--TABed and transcribed by Gustav Cederlof--

Bass Riff

G||---------------------------||
D||---------------------------||
A||---3-3/5-5-5-5-5-5---------||
E||-------------------3-4-5---||


Riff 1

E||---------------------------||
B||---------------------------||
G||---------------------------||
D||---------------------------||
A||---3-3/5-5-5-5-5-5---------||
E||-------------------3-4-5---||


Riff 2

E||-----------------------------------------------||
B||-----------------------------------------------||
G||---5-5-5-5-5-5-5-5-5-5-5-5-5-5-5-5--3--8-7-3---||
D||---5-5-5-5-5-5-5-5-5-5-5-5-5-5-5-5--3--8-7-3---||
A||---3-3-3-3-3-3-3-3-3-3-3-3-3-3-3-5--1--6-5-1---||
E||-----------------------------------------------||


Riff 3

E||----------------------||
B||----------------------||
G||---5-8-7-3-10-5-3-5---||
D||---5-8-7-3-10-5-3-5---||
A||---3-6-5-1-8--3-1-3---||
E||----------------------||


Riff 4
 
E||---------------------||
B||---------------------||
G||---5--8--10--12-12---||
D||---5--8--10--12-12---||
A||---3--6--8---10-10---||
E||---------------------||


Riff 5

E||------------------------||
B||------------------------||
G||---6/5--5-5-5-5-5-5-5---||
D||---6/5--5-5-5-5-5-5-5---||
A||---4/3--3-3-3-3-3-3-3---||
E||------------------------||
p.m        * * * * * * *


Riff 6
[ Tab from: http://www.guitartabs.cc/tabs/b/black_sabbath/hand_of_doom_tab.html ]
E||-------------||
B||-------------||
G||---8--6--3---||
D||---8--6--3---||
A||---6--4--1---||
E||-------------||



Bass Riff  x4

Bass Riff
What you gonna do
Time's caught up with you
Now you wait your turn
You know there's no return

Riff 1
Take your written rules
You join the other fools
Turn to something new
Now it's killing you

Bass Riff
First it was the bomb
Vietnam napalm
Disillusioning
You push the needle in

Riff 1
From life you escape
Reality's that way
Colours in your mind
Satisfy in time

Bass Riff  x2

Riff 2  x4

Riff 3
Oh you, you know you must be blind
To do something like this
To take the sleep that you don't know
You're giving Death a kiss
Oh little fool now

Riff 2  x4

Riff 3
Your mind is full of pleasure
Your body's looking ill
To you it's shallow leisure
So drop the acid pill
Don't stop to think now

Riff 4  x3

Riff 5  x2

Riff 5
Your having a good time baby
But they won't last
You're mind's all full of things
You're living too fast
Go out and enjoy yourself
Don't bottle it in
You need someone to help you
Stick the needle in, yeah

Riff 2  x4

(Guitar Solo..untabed)

Riff 6  x2

Bass Riff  x4

Bass Riff
Now you know the scene
Your skin starts turning green
Your eyes no longer see
Life's reality

Riff 1
Push the needle in
Face Death's sickly grin
Holes are in you skin
Caused by deadly pin

Bass Riff
Head starts spinning round
Fall down to the ground
Feel your body heave
Death's hands start to weave

Riff 1
It's to late to turn
You don't want to learn
Price of life you cry
Now you're gonna die

Bass riff  x4 and fade
Comments