Black Sabbath - Fairies Wear Boots Chords & Tabs

 

Fairies Wear Boots Chords & Tabs

Black Sabbath Chords & Tabs

Version: 7 Type: Tab 0 ratings
1 star 2 stars 3 stars 4 stars 5 stars
comments

Fairies Wear Boots Tab

   
Artist: Black Sabbath                                                             Zep3000
Song: Fairies Wear Boots
Album: Paranoid

This is 100% Correct         Tabbed by Jack

h=hammer
p=pull off
/=slide
x=mute string
^bend

Intro                                x3
e-----------------------------------------| --------------------------------------|
B-----------------------------------------| --------------------------------------|
G-----------3--------------3--------------| --------3--------------3------3-------|
D--------3-----5---5----3-----5---5--3h5--| ------3---5---5-----3----5-------5----|
A------5--------------5-------------------| ----5------------5--------------------|
E--3--------------------------------------| -3------------------------------------|


Main Melody
e------------------------------------------------------------------------------------|
B-----1---1p0----0--------------------1---1p0-----0--------------------------1p0---0-|
G--2-----------2------2p0--0h2--0h2------------2------2p0--0h2--0h2-------0------2---|
D---------------------------------------------------------------------0h2------------|
A------------------------------------------------------------------------------------|
E------------------------------------------------------------------------------------|

e------------------------------------------------7---10/15/7---7--5--5/7--7------10--|
B--------------1p0---1p0---1p0---1p0----0--------------------------------------------|
G-2p0--0h2--2------2-----2-----2-----x------2/4--4----7/12/4---4--2--2/4--4--4/7-----|
D------------------------------------------------------------------------------------|
A------------------------------------------------------------------------------------|
E------------------------------------------------------------------------------------|

e------12------7-----5--5/7--7--10--10/15/7--7--5--5/7--7--10---12--12/15---12-----|
B----------------------------------------------------------------------------------|
G--7/9-----9/4---4/2----2/4--4--7----7/12/4--4--2--2/4--4---7----9---9/12----9-----|
D----------------------------------------------------------------------------------|
A----------------------------------------------------------------------------------|
E-------------------------------------------------------------------------------0--|


Drum Break Riff           Repeatx1
e--------------------------------| ------------------------------|
B--------------------------------| ------------------------------|
G--9----7------------------------| ------------------------------|
D--7----7------------9----7------| ----9----7-----------9----10--|
A--7----5------------9----7------| ----9----7-----------9----10--|
E--------------------7----5------| ----7----5-----------7----8---|


Solo 1
e-------------------9--------------------12^(14)--12^(14)^12--12--9--------9------------|
B-----------------9---12^(14)^12---12--9-----------------------------9--12----12--9--9--|
G------------9h11-----------------------------------------------------------------------|
D--11--9h11-----------------------------------------------------------------------------|
A--11-----------------------------------------------------------------------------------|
E--9------------------------------------------------------------------------------------|


e------------9---------------------------------9---------------------------------------|
B----------9---12p9--------------------------9---9--12--9------------------------------|
G--11^(12)-----------11^(13)--11^(13)^11--11---------------11^13^11p9-11-9----9h11^13--|
D--------------------------------------------------------------------------11----------|
A--------------------------------------------------------------------------------------|
E--------------------------------------------------------------------------------------|


e----9------------------|
B--9---12--9------------|
G-------------11^13--9--|
D-----------------------|
A-----------------------|
E-----------------------|


Verse riffs         Repeatx4                                Repeatx4
e-----------------3---------| ---------------------------------------|
B-----------------3---------| ---------------------------------------|
G-----------------3---------| ---------------------------------------|
D--5----8----5----3----x----| --5----x----8---------5----3-----------|
A--5----8----5----3----x----| --5----x----8---------5----3-----------|
E--3----6----3----3----x----| --3----x----6----0----3----3--------3--|
[ Tab from: http://www.guitartabs.cc/tabs/b/black_sabbath/fairies_wear_boots_tab_ver_7.html ]
Solo 2                              Repeatx1
e-----------------------------------------------| --------------------------------------|
B-----------------------------------------------| ---------------3--------6---------6---|
G-----------------------------------------------| ------------5^(7)----8^(10)---10^(12)-|
D--3h5---5----------------3---------------------| --------------------------------------|
A--------------------3h5--3--5------------------| --------------------------------------|
E--------------------------------3^5^3----------| --3-----------------------------------|


e-------------------------------------------------------------------------------|
B--------------3-------6--------6-----------------3------6--------8--------10---|
G--/19--5---5^(7)---8^(10)--10^(12)---/19--5---5^(7)--8^(10)--10^(12)--12^(14)--|
D-------------------------------------------------------------------------------|
A-------------------------------------------------------------------------------|
E-------------------------------------------------------------------------------|


e--------15----------------------------------------------18^(20)--18^(20)^18p15--|
B-----15-----18^(20)--18^(20)--18^(20)--18^(20)^18---15--------------------------|
G--18----------------------------------------------------------------------------|
D--------------------------------------------------------------------------------|
A--------------------------------------------------------------------------------|
E--------------------------------------------------------------------------------|


e--18p15----18p15--------------------------15--------------------------15--------------|
B--------18-------18--18p15-------------15----18p15-----------------15----18p15--------|
G---------------------------17--17^(19)-------------17--15--17^(19)-------------17--15-|
D--------------------------------------------------------------------------------------|
A--------------------------------------------------------------------------------------|
E--------------------------------------------------------------------------------------|


e----------------------------3---------------------------------------------------|
B------3------------------------6p3------------6-----------------6---------------|
G------3----------3---5^(7)---------5--3--5/7----7/5--5---3--5/7---5--3--5p3-----|
D--5-------5p3-5--------------------------------------------------------------5--|
A--------------------------------------------------------------------------------|
E--------------------------------------------------------------------------------|

                                                  Repeatx1                     Repeatx4
e|----------------------------------------------------------||-------------------------|
B|.--------------------------------------------------------.||-------------------------|
G|----------------------------------------------------------||-------------------------|
D|--3h5--5---------------------3----------------------------||-------------------------|
A|.-----------------------3h5--3--5------------------------.||-------------------------|
E|--------------------------------------3^(5)^3-------------||-3-3-3-3-3-3-3-3-3-3-3-3-|


Outro Solo                           Repeatx1
e--------------------------------------------|
B--------------------------------------------|
G--------------------------------------------|
D--3h5--5------------3-----------------------|
A---------------3h5--3--5--------------------|
E--------------------------3^(5)^3-----------|


e------------------------------------------------------------------------------------|
B--10-11---10------10-11---10-------10-11---10------10-11---10-------10-11---10------|
G-------12---10-12------12---10-12-------12---10-12------12---10-12-------12---10-12-|
D------------------------------------------------------------------------------------|
A------------------------------------------------------------------------------------|
E------------------------------------------------------------------------------------|

                                     Repeat to fade
e-----------------------------------------------------|
B--10-11---10-------10-11---10-------10-11---10-------|
G-------12---10-12-------12---10-12-------12---10-12--|
D-----------------------------------------------------|
A-----------------------------------------------------|
E-----------------------------------------------------|

PLEASE RATE THIS TAB                                                           Zep3000
Comments