Black Sabbath - Evil Woman Chords & Tabs

 

Evil Woman Chords & Tabs

Black Sabbath Chords & Tabs

Version: 3 Type: Tab 0 ratings
1 star 2 stars 3 stars 4 stars 5 stars
comments

Evil Woman Tab

Evil Woman TAB by Black Sabbath

Artist: Black Sabbath
Album: Black Sabbath
Song: Evil Woman
Tabber: Anonymous D

This song is in standard (EADGBE) tuning.

~=vibrato

INTRO
|------------------|
|-----3-4-3-4-3-2~-|
|-4-3--------------|
|------------------|
|------------------|
|------------------|

VERSE
|-----|
|-----|
|-----|		(repeat)
|-3-5-|
|-3-5-|
|-1-3-|
[ Tab from: http://www.guitartabs.cc/tabs/b/black_sabbath/evil_woman_tab_ver_3.html ]
CHORUS
|-------------------------------------------------|
|-------------------------------------------------|
|---------5-5-3-3-----------------5-5-3-3---------|
|-3-3-5-5-5-5-3-3-3-5-3-5-3-3-5-5-5-5-3-3-3-5-3-5-|
|-3-3-5-5-3-3-1-1-3-5-3-5-3-3-5-5-3-3-1-1-3-5-3-5-|
|-1-1-3-3---------1-3-1-3-1-1-3-3---------1-3-1-3-|

Then VERSE, CHORUS, VERSE then...

CHORUS 2
|-----------------------------------------|
|-----------------------------------------|
|---------5-5-3-3-----------------5-5-3-3-|
|-3-3-5-5-5-5-3-3-3-5-3-5-3-3-5-5-5-5-3-3-|
|-3-3-5-5-3-3-1-1-3-5-3-5-3-3-5-5-3-3-1-1-|
|-1-1-3-3---------1-3-1-3-1-1-3-3---------|

BASS RUN
|-----------------|
|-----------------|
|-----------------|
|-----------------|
|-----------------|
|-1-1-1-1-1-1-1-1-|

Then the VERSE with the solo which I don't Know. 
Then the CHORUS, VERSE then repeat the CHORUS to fade.
Comments