Black Sabbath - Evil Woman Chords & Tabs

 

Evil Woman Chords & Tabs

Black Sabbath Chords & Tabs

Version: 3 Type: Bass Tab 0 ratings
1 star 2 stars 3 stars 4 stars 5 stars
comments

Evil Woman Bass Tab

Bass Tab for Evil Woman by Black Sabbath
Tabbed by Kenneth Miller
festivly317@aol.com

Intro                  
G|--3---------1---------|
D|-------3---------1----|
A|----------------------|
E|----------------------|

1st Main

G|----------------------------------|
D|----------------------------------|
A|----------1-----------------1--3-3|
E|--1-3---3----3--3-1---3--3--------|

Variation
                                         
G|----------------------------------|  
D|----------5----------------5---7-7|  
A|--5-7---7----7---7-5---7--7-------|  
E|----------------------------------|

1st Chorus (Evil woman don't you play your games w/me)
  
G|----------------1-1-3-3----------------------------------|
D|-----0-1--2-3-4---------------------------3--------------|
A|-1-1--------------------------------1-3-5-----------1----|
E|-------------------------1-3--3-1-3---------1--3--3----3-|

G|----------------1-1-3-3----------------------------------|
D|-----0-1--2-3-4---------------------------3--------------|
A|-1-1--------------------------------1-3-5-----------1----|
E|-------------------------1-3--3-1-3---------1--3--3----3-|

2nd Main

G|----------------------------------|
D|----------------------------------| 
A|-----------1--3-3----------1------| 
E|-1---3--3----------1-3---3----3--3|
                                    
Variation
     
G|----------------------------------|  
D|----------5----------------5---7-7|  
A|--5-7---7----7---7-5---7--7-------|  
E|----------------------------------|

2nd Chorus                         
[ Tab from: http://www.guitartabs.cc/tabs/b/black_sabbath/evil_woman_btab_ver_3.html ]
G|----------------1-1-3-3----------------------------------|
D|-----0-1--2-3-4----------------------------3-------------|
A|-1-1---------------------------------1-3-5----------1----|
E|--------------------------1-3--3-1-3---------1-3--3---3--|   

G|----------------1-1-3-3----------------------------------|
D|-----0-1--2-3-4------------------------------------------|
A|-1-1-----------------------------------------------------|
E|-------------------------1-1-1-1-1-1-1-1-1-1-1-1-1-1-1-1-| 

Back to 1st Main

3rd Chorus

G|----------------1-1-3-3----------------------------------|
D|-----0-1--2-3-4---------------------------3--------------|
A|-1-1--------------------------------1-3-5-----------1----|
E|-------------------------1-3--3-1-3---------1--3--3----3-|

G|----------------1-1-3-3----------------------------------|
D|-----0-1--2-3-4---------------------------3--------------|
A|-1-1--------------------------------1-3-5-----------1----|
E|-------------------------1-3--3-1-3---------1--3--3----3-|    

Back to 2nd Main

4th (last) Chorus

G|----------------1-1-3-3----------------------------------|
D|-----0-1--2-3-4----------------------------3-------------|
A|-1-1---------------------------------1-3-5----------1----|
E|--------------------------1-3--3-1-3---------1-3--3---3--| 

G|----------------1-1-3-3----------------------------------|
D|-----0-1--2-3-4----------------------------------------3-|
A|-1-1-------------------------------1-------------1-3-5---|
E|------------------------1-3--3-1-3---1--3--3-1-3---------|

G|----------------1-1-3-3----------------------------------|
D|-----0-1--2-3-4------------------------------------------|
A|-1-1-----------------------------1----------------1--3-3-|
E|------------------------1-3---3----3--3-1---3--3---------|     

G|----------------1-1-3-3----------------------------------|
D|-----0-1--2-3-4----------------------------3-------------|
A|-1-1---------------------------------1-3-5----------1----|
E|--------------------------1-3--3-1-3---------1-3--3---3--|
Comments