Black Sabbath - Embryo Chords & Tabs

 

Embryo Chords & Tabs

Black Sabbath Chords & Tabs

Version: 2 Type: Tab 0 ratings
1 star 2 stars 3 stars 4 stars 5 stars
comments

Embryo Tab

   
embryo
key:Db

--0-0-0-0---0---0-0-0--0-0---3-5-7-5--0---0-0-0--0-0---7-5-3-0--|
----------------------------------------------------------------|
----------------------------------------------------------------|
--2-4-5-4---2h4-5-4-2--2-0---2-4-5-4--2h4-2-0-2--2-0---5-4-2-0--|
----------------------------------------------------------------|
----------------------------------------------------------------|
[ Tab from: http://www.guitartabs.cc/tabs/b/black_sabbath/embryo_tab_ver_2.html ]
--0---0-0-0--0-0---0-0-0-0--0---0-0-0--0-0---0-0-0-0--0---0-0-0--0-0-|
---------------------------------------------5-3---3-----------------|
-------------------------------------------------4-------------------|
--2h4-5-4-2--2-0---2-4-5-4--2h4-5-4-2--2-0------------2h4-5-4-2--2-0-|
---------------------------------------------------------------------|
---------------------------------------------------------------------|

--0-0-0-0--0---0-0-0--0-0---3-2-0-0---0---0-0-0--0-0---7-5-3-0--|
----------------------------------------------------------------|
----------------------------------------------------------------|
--2-4-5-4--2h4-5-4-2--2-0---0-0-0-2---2h4-5-4-2--2-0---5-4-2-0--|
----------------------------------------------------------------|
----------------------------------------------------------------|

--0---0-0-0--|
-------------|
-------------|
--2h4-5-4-2--|
-------------|
-------------|
slow down                               

                                    enjoy
Comments