Black Sabbath - Electric Funeral Chords & Tabs

 

Electric Funeral Chords & Tabs

Black Sabbath Chords & Tabs

Version: 3 Type: Tab 2 ratings
1 star 2 stars 3 stars 4 stars 5 stars
comments

Electric Funeral Tab

   
#-----------------------------PLEASE NOTE-------------------------------------#
#This OLGA file is the author's own work and represents their interpretation  #
#of the song. You may only use this file for private study, scholarship, or   #
#research. Remember to view this file in Courier, or other monospaced font.   #
#See http://www.olga.net/faq/ for more information.                           #
#-----------------------------------------------------------------------------#

Subject: b/black_sabbath/electric_funeral.tab
Date: Thu, 25 Jan 1996 13:13:26 -0700 (MST)
From: krjohn@xmission.com (Kent R. Johnson)

                                Electric Funeral
                        Black Sabbath (Paranoid)


     Fig 1                                     Fig 2                            
||------------------------------------||--||--------------------------||--------
||------------------------------------||--||--------------------------||--------
||*----------------------------------*||--||*------------------------*||--------
||*----------------------------------*||--||*------------------------*||--------
||----------2h3--2~~~-----------------||--||-------2~~~--1~~~--0------||--------
||----0--0-------------0--2h3--2~~~---||--||----0-----------------3---||--------
                                                                                

     Fig 3                 Fig 4

||--------------||--||------------12--12--12--12--12--|-----------12--12--12----
||--------------||--||------------12--12--12--12--12--|-----------12--12--12----
||*------------*||--||*-----------12--12--12--12--12--|-----------12--12--12----
||*------------*||--||*--2--0--2----------------------|--2--0--2----------------
||----7--6--5---||--||--------------------------------|-------------------------
||----7--6--5---||--||--------------------------------|-------------------------
                                                                                

                                                                                
12--12--|-----------12--12--12--12--12--|-----------12--12--12--12--12--|-------
12--12--|-----------12--12--12--12--12--|-----------12--12--12--12--12--|-------
12--12--|-----------12--12--12--12--12--|-----------12--12--12--12--12--|------
--------|--2--0--2----------------------|--2--0--2----------------------|-------
--------|-------------------------------|-------------------------------|-------
--------|-------------------------------|-------------------------------|-------
                                                                                

 Fig 5             Fig 6                       Fig 7
Fig  8
----------------|----------------------||--||--------------------||--||---------
----------------|----------------------||--||--------------------||--||---------
9
12--14--12--16--|--9--12--14--16--12--*||--||*--17--17--17--17--*||--||*--7-----
----------------|---------------------*||--||*------------------*||--||*--------
----------------|----------------------||--||--------------------||--||---------
----------------|----------------------||--||--------------------||--||---------
                                                                                

                                                                                
---------------||---------------------------------------------------------------
---------------||---------------------------------------------------------------
7--7--9/(15)--*||---------------------------------------------------------------
--------------*||---------------------------------------------------------------
---------------||---------------------------------------------------------------
---------------||---------------------------------------------------------------
                                                                                



Fig 1: 4 times

Fig 2
Reflects in the sky,
Fig 2
Warn you your going to die,
Etc.
Storm coming you better hide,

>From the atomic tide.

Flashes in the sky,

Turns houses in styes,

Turns people in to clay, 

Radiation minds decay.
[ Tab from: http://www.guitartabs.cc/tabs/b/black_sabbath/electric_funeral_tab_ver_3.html ]
Fig 1: 4 times

Fig 2
Robot minds of robot slaves
Etc.
Lead them to atomic rage,

Plastic flowers melting sun,

Fading moon falls upon,

Dying worls of radiation,

Victoms of mad frustration,

Burning global poxy fire,

Like electric funeral fire.

Fig 1: 4 times

Fig 3: 5 times

Fig 4: 4 times

Fig 5
Buildings crashing down,
Fig 6
To a cracking ground,
Fig 5 
Rivers turn to wood,
Fig 6
Ice melting to flood.

Fig 4: 4 times

Fig 5
Earth lies in death bed,
Fig 6
Clouds cry water dead,
Fig 5
Tearing life away,
Fig 6
Here's the burning pay.

Fig 7
Electric funeral,
Etc
Electric funeral,

Electric funeral,

Electric funeral,

Fig 8: 4 times

Fig 1: 4 times

Fig 2
And so in the sky,

Shines the electric eye,

Super-natural king,

Takes earth under his wing,

Heavens golden chous sings,

Hells angels flap their wings,

Evil souls fall to hell,

Ever trapped in burning cells.

Fig 1: fadeout



Playing notes:  Fig 1 can either be played as 1 guitar using both heavy
distortion and a wah peddle, or as 2 guitars, one with wah and one with
heavy distortion. Play the rest of the song with heavy distortion.

My brother and I transcribed this, so any mistakes are our fault.  If you
find any in the guitar part or the lyrics, e-mail me and I'll see what I can
do. This tab was created using the Bucket o Tab tab creation software, so
import if you got it, and if you don't download it. (I promise, it will look
better.)




Date: Wed, 16 Jul 1997 14:19:01 -0300
From: Etienne Gauthier 

Electric Funeral   
                                 By Black Sabbath
                                 off of their
                                  "Paranoid"
                                    album
                          Tabbed by Adam St-Laurent
                      
   w/wah-wah       4 times (end riff 1)   
 |------------------------|
 |------------------------|
 |*----------------------*|
 |*----------------------*|
 |--------2br2~~~~~-------|
 |--0--0---------0--2br2--|
                     (end riff 2)
 |------------------------|
 |------------------------|
 |------------------------|
 |------------------------|
 |----X--2--1-------------|
 |--0-X--------5---3------|
                  7 times (end riff 2A)    (fill 1)
 |--------------------------|        |---------|
 |--------------------------|        |---------|
 |*------------------------*|        |----4----|
 |*------------------------*|        |----2----|
 |----------2--1------------|        |----2----|
 |--0-0-0-0-------5---3-----|        |----0----|

  *riff 1* \
  *riff 2*  >2 Times
  *riff 2A*/ 
  *riff 1*  
  *fill 1* 
  *riff 3*
            5 times (end riff 3)
 |------------------|
 |------------------|
 |*--9----8----7---*|
 |*--9----8----7---*|	
 |---7----6----5----|
 |---0--------------|

                                     (end riff 4)
 |------------X---12--12--12-12--X-X--|
 |------------X---12--12--12-12--X-X--|
 |--9--7--9---X---12--12--12-12--X-X--|
 |--9--7--9---X------------------X-X--|
 |--7--5--7---------------------------|
 |------------------------------------|

                                        (end riff 5) 
 |---------------------|-------------------------|
 |-5--8--8/10--8-10b---|-5--8--8/10--10b-10--8-5-|
 |---------------------|-------------------------|
 |---------------------|-------------------------|
 |---------------------|-------------------------|
 |---------------------|-------------------------|

  *riff 4*
  *riff 5*
  *riff 4*
  *riff 5*
  *solo*
  *riff 1* \
  *riff 2*  >2 times
  *riff 2A*/

  Solo:
                 4 times             2 times
 |---12---12---12---12---|-------------------|------------------|
 |---15b--15b--15b--15b--|--7--7-7--X-7b--\--|--7--7-7--X-7b-7b-|
 |*---------------------*|*-----------------*|------------------|
 |*---------------------*|*-----------------*|------------------|
 |-----------------------|-------------------|------------------|
 |-----------------------|-------------------|------------------|


   b:bend
  br:bend and release
 ~~~:vibrato
   X:rake
   \:glissendo 

Comments