Black Sabbath - Electric Funeral Chords & Tabs

 

Electric Funeral Chords & Tabs

Black Sabbath Chords & Tabs

Version: 12 Type: Tab 0 ratings
1 star 2 stars 3 stars 4 stars 5 stars
comments

Electric Funeral Tab

Black Sabbath - Electric Funeral
 
 
||------------------------------------||------------------------------------||
||------------------------------------||------------------------------------||
||*----------------------------------*||*----------------------------------*||  
||*----------------------------------*||*----------------------------------*||
||----------2h3--2~~~-----------------||----------2h3--2~~~-----------------||
||----0--0-------------0--2h3--2~~~---||----0--0-------------0--2h3--2~~~---||

||------------------------------------||------------------------------------||
||------------------------------------||------------------------------------||
||*----------------------------------*||*----------------------------------*||  
||*----------------------------------*||*----------------------------------*||
||----------2h3--2~~~-----------------||----------2h3--2~~~-----------------||
||----0--0-------------0--2h3--2~~~---||----0--0-------------0--2h3--2~~~---||


||--------------------------||--------------------------||
||--------------------------||--------------------------||
||*------------------------*||*------------------------*||  
||*------------------------*||*------------------------*|| 
||-------2~~~--1~~~--0------||-------2~~~--1~~~--0------||
||----0-----------------3---||-0000-----------------3---|| 

||--------------------------||--------------------------||
||--------------------------||--------------------------||
||*------------------------*||*------------------------*||  
||*------------------------*||*------------------------*|| 
||-------2~~~--1~~~--0------||-------2~~~--1~~~--0------||
||-0000-----------------3---||-0000-----------------3---||

||--------------------------||--------------------------||
||--------------------------||--------------------------||
||*------------------------*||*------------------------*||  
||*------------------------*||*------------------------*|| 
||-------2~~~--1~~~--0------||-------2~~~--1~~~--0------||
||-0000-----------------3---||-0000-----------------3---||

||--------------------------||--------------------------||
||--------------------------||--------------------------||
||*------------------------*||*------------------------*||  
||*------------------------*||*------------------------*|| 
||-------2~~~--1~~~--0------||-------2~~~--1~~~--0------||
||-0000-----------------3---||-0000-----------------3---||

||------------------------------------||------------------------------------||
||------------------------------------||------------------------------------||
||*----------------------------------*||*----------------------------------*||  
||*----------------------------------*||*----------------------------------*||
||----------2h3--2~~~-----------------||----------2h3--2~~~-----------------||
||----0--0-------------0--2h3--2~~~---||----0--0-------------0--2h3--2~~~---||

||------------------------------------||------------------------------------||
||------------------------------------||------------------------------------||
||*----------------------------------*||*----------------------------------*||  
||*----------------------------------*||*----------------------------------*||
||----------2h3--2~~~-----------------||----------2h3--2~~~-----------------||
||----0--0-------------0--2h3--2~~~---||----0--0-------------0--2h3--2~~~---||

||--------------------------||--------------------------||
||--------------------------||--------------------------||
||*------------------------*||*------------------------*||  
||*------------------------*||*------------------------*|| 
||-------2~~~--1~~~--0------||-------2~~~--1~~~--0------||
||----0-----------------3---||-0000-----------------3---|| 

||--------------------------||--------------------------||
||--------------------------||--------------------------||
||*------------------------*||*------------------------*||  
||*------------------------*||*------------------------*|| 
||-------2~~~--1~~~--0------||-------2~~~--1~~~--0------||
||-0000-----------------3---||-0000-----------------3---||

||--------------------------||--------------------------||
||--------------------------||--------------------------||
||*------------------------*||*------------------------*||  
||*------------------------*||*------------------------*|| 
||-------2~~~--1~~~--0------||-------2~~~--1~~~--0------||
||-0000-----------------3---||-0000-----------------3---||

||--------------------------||--------------------------||
||--------------------------||--------------------------||
||*------------------------*||*------------------------*||  
||*------------------------*||*------------------------*|| 
||-------2~~~--1~~~--0------||-------2~~~--1~~~--0------||
||-0000-----------------3---||-0000-----------------3---||

||------------------------------------||------------------------------------||
||------------------------------------||------------------------------------||
||*----------------------------------*||*----------------------------------*||
||*----------------------------------*||*----------------------------------*||
||----------2h3--2~~~-----------------||----------2h3--2~~~-----------------||
||----0--0-------------0--2h3--2~~~---||----0--0-------------0--2h3--2~~~---||

||------------------------------------||------------------------------------||
||------------------------------------||------------------------------------||
||*----------------------------------*||*----------------------------------*||
||*----------------------------------*||*----------------------------------*||
||----------2h3--2~~~-----------------||----------2h3--2~~~-----------------||
||----0--0-------------0--2h3--2~~~---||----0--0-------------0--2h3--2~~~---||

||--------------||--------------||--------------||--------------||--------------||
||--------------||--------------||--------------||--------------||--------------||
||*------------*||*------------*||*------------*||*------------*||*------------*||
||*------------*||*------------*||*------------*||*------------*||*------------*||
||----7--6--5---||----7--6--5---||----7--6--5---||----7--6--5---||----7--6--5---||
||----7--6--5---||----7--6--5---||----7--6--5---||----7--6--5---||----7--6--5---||

||------------12--12--12--12--12--||------------12--12--12--12--12--||
||------------12--12--12--12--12--||------------12--12--12--12--12--||
||*-----------12--12--12--12--12--||------------12--12--12--12--12--||
||*--2--0--2----------------------||*--2--0--2----------------------||
||--------------------------------||--------------------------------||
||--------------------------------||--------------------------------||
[ Tab from: http://www.guitartabs.cc/tabs/b/black_sabbath/electric_funeral_tab_ver_12.html ]
||------------12--12--12--12--12--||------------12--12--12--12--12--||
||------------12--12--12--12--12--||------------12--12--12--12--12--||
||*-----------12--12--12--12--12--||------------12--12--12--12--12--||
||*--2--0--2----------------------||*--2--0--2----------------------||
||--------------------------------||--------------------------------||
||--------------------------------||--------------------------------||

||------------------||----------------------||------------------||----------------------||
||-9----------------||----------------------||-9----------------||----------------------||
||--12--14--12--16--||--9--12--14--16--12--*||--12--14--12--16--||--9--12--14--16--12--*||
||------------------||---------------------*||------------------||---------------------*||
||------------------||----------------------||------------------||----------------------||
||------------------||----------------------||------------------||----------------------||

||------------12--12--12--12--12--||------------12--12--12--12--12--||
||------------12--12--12--12--12--||------------12--12--12--12--12--||
||*-----------12--12--12--12--12--||------------12--12--12--12--12--||
||*--2--0--2----------------------||*--2--0--2----------------------||
||--------------------------------||--------------------------------||
||--------------------------------||--------------------------------||

||------------12--12--12--12--12--||------------12--12--12--12--12--||
||------------12--12--12--12--12--||------------12--12--12--12--12--||
||*-----------12--12--12--12--12--||------------12--12--12--12--12--||
||*--2--0--2----------------------||*--2--0--2----------------------||
||--------------------------------||--------------------------------||
||--------------------------------||--------------------------------||

||------------------||----------------------||------------------||----------------------||
||-9----------------||----------------------||-9----------------||----------------------||
||--12--14--12--16--||--9--12--14--16--12--*||--12--14--12--16--||--9--12--14--16--12--*||
||------------------||---------------------*||------------------||---------------------*||
||------------------||----------------------||------------------||----------------------||
||------------------||----------------------||------------------||----------------------||

|--------------------||--------------------||--------------------||--------------------||
|--------------------||--------------------||--------------------||--------------------||
|*--17--17--17--17--*||*--17--17--17--17--*||*--17--17--17--17--*||*--17--17--17--17--*||
|*------------------*||*------------------*||*------------------*||*------------------*||
|--------------------||--------------------||--------------------||--------------------||
|--------------------||--------------------||--------------------||--------------------||

||------------------------||------------------------||------------------------||
||------------------------||------------------------||------------------------||
||*--7-----7--7--9/(15)--*||*--7-----7--7--9/(15)--*||*--7-----7--7--9/(15)--*||
||*----------------------*||*----------------------*||*----------------------*||
||------------------------||------------------------||------------------------||
||------------------------||------------------------||------------------------||

||------------------------------------||------------------------------------||
||------------------------------------||------------------------------------||
||*----------------------------------*||*----------------------------------*||  
||*----------------------------------*||*----------------------------------*||
||----------2h3--2~~~-----------------||----------2h3--2~~~-----------------||
||----0--0-------------0--2h3--2~~~---||----0--0-------------0--2h3--2~~~---||

||------------------------------------||------------------------------------||
||------------------------------------||------------------------------------||
||*----------------------------------*||*----------------------------------*||  
||*----------------------------------*||*----------------------------------*||
||----------2h3--2~~~-----------------||----------2h3--2~~~-----------------||
||----0--0-------------0--2h3--2~~~---||----0--0-------------0--2h3--2~~~---||

||------------------------------------||------------------------------------||
||------------------------------------||------------------------------------||
||*----------------------------------*||*----------------------------------*||  
||*----------------------------------*||*----------------------------------*||
||----------2h3--2~~~-----------------||----------2h3--2~~~-----------------||
||----0--0-------------0--2h3--2~~~---||----0--0-------------0--2h3--2~~~---||

||------------------------------------||------------------------------------||
||------------------------------------||------------------------------------||
||*----------------------------------*||*----------------------------------*||  
||*----------------------------------*||*----------------------------------*||
||----------2h3--2~~~-----------------||----------2h3--2~~~-----------------||
||----0--0-------------0--2h3--2~~~---||----0--0-------------0--2h3--2~~~---||


||--------------------------||--------------------------||
||--------------------------||--------------------------||
||*------------------------*||*------------------------*||  
||*------------------------*||*------------------------*|| 
||-------2~~~--1~~~--0------||-------2~~~--1~~~--0------||
||----0-----------------3---||-0000-----------------3---|| 

||--------------------------||--------------------------||
||--------------------------||--------------------------||
||*------------------------*||*------------------------*||  
||*------------------------*||*------------------------*|| 
||-------2~~~--1~~~--0------||-------2~~~--1~~~--0------||
||-0000-----------------3---||-0000-----------------3---||

||--------------------------||--------------------------||
||--------------------------||--------------------------||
||*------------------------*||*------------------------*||  
||*------------------------*||*------------------------*|| 
||-------2~~~--1~~~--0------||-------2~~~--1~~~--0------||
||-0000-----------------3---||-0000-----------------3---||

||--------------------------||--------------------------||
||--------------------------||--------------------------||
||*------------------------*||*------------------------*||  
||*------------------------*||*------------------------*|| 
||-------2~~~--1~~~--0------||-------2~~~--1~~~--0------||
||-0000-----------------3---||-0000-----------------3---||

                          the end
Comments