Black Sabbath - Cornucopia Chords & Tabs

 

Cornucopia Chords & Tabs

Black Sabbath Chords & Tabs

Version: 2 Type: Tab 0 ratings
1 star 2 stars 3 stars 4 stars 5 stars
comments

Cornucopia Tab

   
band-black sabbath
song-Cornucopia
tabbed by godsmackthatkid

(If you tune down 2 frets in this one, play it as shown)

Intro Riff - Play first 2 bars 3 times then the third bar
e|----------------|----------------|----------------|
B|----------------|----------------|----------------|
G|----------------|----------------|----------------|
D|----------------|----------------|----------------|
A|--------------7-|----7-6-6-7-----|6-7-----6-7-----|
E|0---7-6-7-6-7---|------------6-7-|----6-7-----6-7-|

Verse Riff 6/8 time
e|-----------------------------------------|
B|---------------------------7--7--7--7----|
G|---------------------------7--7--7--7----|
D|---------------------------7--7--7--7----|
A|------7--7-------7--7------5--5--5--5----|
E|0-0-0------0-0-0------0-0-0--------------|

Too much near the truth they say
Keep it 'till another day
Let them have their little game
Illusion helps to keep them sane

At the end of the verse - Riff 3
  D                     E
e|-------------------------------------------------|
B|7---------------------9------------9------9------|
G|7---------------------9------------9------9------|
D|7---------------------9------------9------9------|
A|5---------------------7------------7------7------|
E|-------------------------------------------------|

e|---------------------------------------------------|
B|---------------------------------------------------|
G|---------------------------------------------------|
D|---------------------------------------------------|
A|7---9h10---9p7----------7---9h10---9---------------|
E|--------------------------------------10-----------|
 (X2)
[ Tab from: http://www.guitartabs.cc/tabs/b/black_sabbath/cornucopia_tab_ver_2.html ]
Verse 2
Let them have their little toys
Matchbox cars and mortgage joys
Exciting in their plastic ways
Frozen food in a concrete maze

Riff 4
  D   A              D   A
e|---------------------------------------|
B|---------------------------------------|
G|7------------------7-------------------|
D|7---7--------------7---7---------------|
A|5---7--------------5---5---------------|
E|----5---5h77777-5h7----5---5h77777-5h7-|(X3)
        You're gonna go insane
        I'm trying to save your brain
Riff 5
e|--------|----------------|
B|--------|----------------|
G|--------|----------------|
D|--------|----------------|
A|6-7-----|6-7-----6-7-----|
E|----6-7-|----6-7-----6-7-|

Not sure about the chords here - Riff 6
  A      A?     D   Dm7
e|------------------8-8-8-|
B|--5-----5------7--6-6-6-|
G|-6-6-6-5-5-5--7-7-5-5-5-|
D|----7-----5--7---77-7-7-|
A|------------5-----------|
E|5-----5-----------------|(X4)

Then something like this - Riff 7 - faster
e|----------------------------------|
B|----------------------------------|
G|----------------------------------|
D|----------------------------------|
A|5---5----55---5----55---5---------|
E|------5h7-------5h7-------5h7-5---|(X4)

Riff 8
  A                G
e|----------------|----------------|
B|----------------|--------3h5p3---|
G|----------------|-------------5b-|
D|7---7---7---7---|5---5-----------|
A|7---7---7---7---|5---5-----------|
E|5---5---5---5---|3---3-----------|

I don't know what's happening
My head's all torn inside
People say I'm heavy
But they don't know what I hide

Riff 7 X4

Riff 4

Riff 5

Verse Riff

Take a life it's going cheap
Kill someone, no-one will weep
Freedom's yours, just pay your dues
We just want your soul to use

Riff 4
Your gonna go insane
I'm trying to save your brain
*****
Comments