Black Sabbath - Cornucopia Chords & Tabs

 

Cornucopia Chords & Tabs

Black Sabbath Chords & Tabs

Version: 1 Type: Tab 2 ratings
1 star 2 stars 3 stars 4 stars 5 stars
comments

Cornucopia Tab

Song: Cornucopia
Artist: Black Sabbath
Tabbed by: Astin Dextor

This is my first time posting a tab, but I love this song and couldn't help noticing its' absence.

Intro (repeat 3 times, then repeat the last bit 3 more times

E]--------------------|----------]
B]--------------------|----------]
G]--------------------|----------]
D]2-5\4-5\4-5/10-10\9-|9/10------]
A]2-3\2-3\2-3/8---8\7-|7/8--9/10-]
E]0-------------------|-----7/8--]


Verse/Main Riff (the normal song doesn't touch the g-string here,
but I like the extra harmony it gives

E]-------------------------------------------------]
B]-------------------------------------------------]
G]9-9-------9-9-------7-7-7-7-7-7------------------]
D]--------------------7-7-7-7-5-7------------------]
A]7-7-------7-7-------5-5-5-5-5-5------------------]
E]----0-0-0-----0-0-0------------------------------]

This part only comes up once, in lieu of a chorus after the first verse

E]----------------------------------------------------------]
B]----------------------------------------------------------]
G]7---6-7---------------------------------------------------]
D]7---7-7---------------------------------------------------]
A]5---4-5--/7-7-10-9-7-/7-7-10-9----/7-7-10-9-7-/7-7-10-9---]
E]-------------------------------10-----------------------10]

Chorus
[ Tab from: http://www.guitartabs.cc/tabs/b/black_sabbath/cornucopia_tab.html ]
E]-------------------------------------------------]
B]-------------------------------------------------]
G]7-5----------------------------------------------]
D]7-5-5/7-7-7-7------------------------------------]
A]5-3-5/7-7-7-7------------------------------------]
E]----3/5-5-5-5------------------------------------]

Then repeat the last part of the intro 3 times, pulling the last chord for
a few seconds

Bridge 1

E]-------------------------------------------------]
B]------0-----------0-----------0------------------]
G]--------0-----------0-------0---0----------------]
D]----0-----0-----0-----0-------------5-5/7--------]
A]--7-----------5-----------3-------3-5-5/7--------]
E]8-----------7-----------5-----------3-3/5--------]

Bridge 2

E]-------------------------------------------------]
B]-------------------------------------------------]
G]-------------------------------------------------]
D]-------------------------------------------------]
A]0-0-0---0-0-0---0-0-0-0-/7-7---------------------]
E]5-5-3^5-5-5-3^5-5-5-5-3-0--0---------------------]

Brudge 3

E]-------------------------------------------------]
B]-------------------------------------------------]
G]------------7b9r7-5------------------------------]
D]7-7-7-7-5-5--------------------------------------]
A]7-7-7-7-5-5--------------------------------------]
E]5-5-5-5-3-3--------------------------------------]

then repeat chorus, and then the last bit of the intro...

let me know if I screwed up anwhere at sauriolb@yahoo.ca
Comments