Black Sabbath - Changes Chords & Tabs

 

Changes Chords & Tabs

Black Sabbath Chords & Tabs

Version: 2 Type: Tab 0 ratings
1 star 2 stars 3 stars 4 stars 5 stars
comments

Changes Tab

   
Changes - In C, but the *bass notes should be an octave lower(Easy on a
piano) (Shift up the neck and play this in F the *bass notes are open E then C)
     C/G pick notes
e---|---3---------|5---5-3--------|
B---|--5----------|6---6-5--------|
G---|-5-----------|7---7-5--------|
D---|-------------|---------------|
A---|-----3*------|---------------|
E---|3--------3---|---------------|
     bar 3rd fret
  I feel unhappy
                   Dm
e---|---3---------|5---5----------|
B---|--5----------|6---6----------|
G---|-5-----------|7---7----------|
D---|-------------|7---7----------|
A---|-----5*------|---------------|
E---|3--------5---|---------------|
  I feel so sad

e---|---7---------|5---5-3--------|
B---|--6----------|6---6-5--------|
G---|-7-----------|7---7-5--------|
D---|-------------|---------------|
A---|-----3*------|---------------|
E---|5--------3---|---------------|
  I've lost the best friend

First 2 bars
  That I ever had
[ Tab from: http://www.guitartabs.cc/tabs/b/black_sabbath/changes_tab_ver_2.html ]
She was my woman
I love her so
But it's to late now
I've let her go

Chorus 3/4 time
     F       Em       Dm      Dm
e---|----1--|-----0--|----5--|----5--|
B---|---1-1-|----0-0-|---6-6-|---6-6-|
G---|--2----|---0----|--7----|--7----|
D---|-3-----|--2-----|-7-----|-7-----|
A---|-------|--------|5------|5------|
E---|1------|0-------|-------|-------|
         I'm going through changes X 4

Then
  G       F        Am7     Am   G  Am
e|-----1--|----1--|----3--|0------|-----1-1-|1------|
B|----0-0-|---1-1-|---1-1-|1-----0|---1-1-1-|1------|
G|---0----|--2----|--2----|2----0-|--2--2-2-|2------|
D|--0-----|-3-----|-2-----|2---0--|-2---2-2-|2------|
A|--------|-------|0------|0------|0----0-0-|0------|
E|3-------|5------|-------|---3---|---------|-------|

Last verse -
It took so long to realise
And I can still hear her last goodbyes
Now all my days are filled with tears
Wish I could go back and change these years
*****
Comments