Black Sabbath - Black Sabbath Chords & Tabs

 

Black Sabbath Chords & Tabs

Black Sabbath Chords & Tabs

Version: 7 Type: Tab 0 ratings
1 star 2 stars 3 stars 4 stars 5 stars
comments

Black Sabbath Tab

|------------------------------------------------------------3---------|
|------------------------------------------3----3~~~---3-----3---------|
|----------------------------------3~~-----5^----------5^--------------|
|-5p3---5-----(5)^-5-5--3~~----3h5-------------------------------------|
|-----5----------------------------------------------------------------|
|----------------------------------------------------------------------|

|------------------------15-----15--x---------------18^---18^---------|
|-3--6---8--10--------15----18^--------18^-18^---15-------------------|
|-5^-8^-10^-12^----17^------------------------------------------------|
|---------------------------------------------------------------------|
|---------------------------------------------------------------------|
|---------------------------------------------------------------------|

|-15-18p15----18p15-----18^-15h18p15-------15-15-----15-----------------|
|----------18-------18---------------18-18-------18^--------------------|
|-----------------------------------------------------------------------|
|-----------------------------------------------------------------------|
|-----------------------------------------------------------------------|
|-----------------------------------------------------------------------|

|--15------------15------15------15------15------15------15-------15------|
|-----18-15----15------15------15------15------15------15-------15---15~~-|
|-----------17^-----17^-----17^-----17^-----17^-----17^------17^----------|
|-------------------------------------------------------------------------|
|-------------------------------------------------------------------------|
|-------------------------------------------------------------------------|
[ Tab from: http://www.guitartabs.cc/tabs/b/black_sabbath/black_sabbath_tab_ver_7.html ]
|----------15---------------------------18^^^18p15---18^----15h18p15-----|
|--------15---------15--18^^----18^^----------------------------------18-|
|--14-17^-----17-18---------15------15-----------------------------------|
|------------------------------------------------------------------------|
|------------------------------------------------------------------------|
|------------------------------------------------------------------------|

|--15h18p15--18p15--15h18p15h18-15h18p15h18-15h18p15h18-15h18p15h18-18^---|
|----------18-----18------------------------------------------------------|
|-------------------------------------------------------------------------|
|-------------------------------------------------------------------------|
|-------------------------------------------------------------------------|
|-------------------------------------------------------------------------|

|-18^^^--18p15---------15-15--------------------15-----------------------|
|-------------18-18-18^------18-15------------15--18p15------------------|
|---------------------------------17-15^---17^----------17-15^-----------|
|---------------------------------------------------------------17p15h17-|
|------------------------------------------------------------------------|
|------------------------------------------------------------------------|

|---------------15-----15-----15---------------------------------------------|
|-------------15-----15-----15-----------------------------------------------|
|-------15-17^----17^----17^-----18^-18^-18^---------------------------------|
|--15h17---------------------------------------------------------------------|
|----------------------------------------------------------------------------|
|----------------------------------------------------------------------------|
Comments