Black Sabbath - Black Sabbath Chords & Tabs

 

Black Sabbath Chords & Tabs

Black Sabbath Chords & Tabs

Version: 4 Type: Bass Tab 0 ratings
1 star 2 stars 3 stars 4 stars 5 stars
comments

Black Sabbath Bass Tab

BLACK SABBATH
(1970)

mf - loud
mp - soft

SATANDARD TUNING

1A
 G---------|-------------|-----------------|-------------|---------------|
 D--4------|-------5-----|-----------------|-------5-----|---------------|
 A--4------|-------------|-4--4-4--4-4-16\-|-------------|-4--4-4--4-4---|
 E---------|-3-----------|-----------------|-3-----------|-------------6-|
            mf.
G-------------|------------------|-------------|---------------|
D-------5-----|------------------|-------5-----|---------------|
A-------------|-4--4-4--4-4-11\--|-------------|-4--4--4-4-4---|
E-3-----------|----------------4-|-3-----------|-------------6-|

verse
G-------------------------||
D.-----------------------.||
A.---------4-4-4-4-4-4-4-.||
E-3---3-------------------||
  mp

 what is this that stands before me...

G------------------------------|
D------------------------------|
A-------------4-4-4-4--4-4/16\-|
E-3---3-3-3-3------------------|
   1. oh no.__________________
   2.OH NO_NO PLEASE GOD HELP ME.

   (increase with volume) mf.

2A
G-------------|-------------------|-------------|----------------|
D.------5-----|-------------------|-------5-----|----------------|
A.------------|-4--4-4--4-4-16\5--|-------------|-4--4--4-4-11\--|
E-3-----------|-----------------6-|-3-----------|--------------4-|

G-------------|---------------|
D-------5-----|--------------.|
A-------------|-4--4--4-4-4--.|
E-3-----------|-------------6-|


PLAY VERSE AGAIN 
THEN REPEAT RIFF 2A ONCE.
[ Tab from: http://www.guitartabs.cc/tabs/b/black_sabbath/black_sabbath_btab_ver_4.html ]
  ritard.     A TEMPO.
G-----------||-----------|----------------------------------------|
D-----------||-12--------|.--------------------------------------.|
A-----------||-8---------|.10-10-10--10--10-10--10-10--10-10--10-.|
E-3---------||-----------|----------------------------------------|

                          is it the end my friend?
                          satans coming round the bend.
                          people running cause their scared
                          you better go and beware_____.

       no__           no__             Please               no____.
G-------------------------------|-----------------------------------|
D-------------------------------|-----------------------------------|
A-8-10-10--10--10-10--10-10--10-|-8-10-10--10-10-10--10-10-10-20--\-|
E-------------------------------|-----------------------------------|


G----------------------------------------|----------------------------|
D.---------------------------------------|----------------------------|
A.10-10-10--10-10-10--10-10-10--10-10-10-|-8-8-8--8-8-8--8-8-8--8-8-8-|
E----------------------------------------|----------------------------|

G----------------------------|-----------------------------|
D----------------------------|----------------------------.|
A-7-7-7--7-7-7--7-7-7--7-7-7-|-6-6-6--6-6-6--6-6-6--6-6-6-.|
E----------------------------|-----------------------------|

G----------------------|-----------------||
D.---------------------|----------------.||
A.10--10--10--10-10-10-|-8--8--8--8-8-8-.||
E----------------------|-----------------||

G---------------------------|-------------------|----------|------------||
D---------------------------|-------------------|----------|------------||
A-10--10-10-10-10--10-10-10-|-8--8-8-8-8--8-8-8-|-10-------|-10-8----10-||
E---------------------------|-------------------|----------|------10----||



PLEASE RATE
AND CHECK OUT MY OTHER SABBATH TAB :)

Comments