Black Sabbath - Anno Mundi Chords & Tabs

 

Anno Mundi Chords & Tabs

Black Sabbath Chords & Tabs

Version: 1 Type: Tab 0 ratings
1 star 2 stars 3 stars 4 stars 5 stars
comments

Anno Mundi Tab

          Anno Mundi
          Black Sabbath - TYR (1990)

          |-------0-----------0-----------0---------------------------
          |-----3---3-------6---6-------3---3-------------------------
          |---2-------2---5-------5---2-------2-----0-----0-----------
          |-0----------/3-----------0-------------2-----0---0-3-0-----
          |-------------------------------------3-----2---------------
          |-----------------------------------------------------------


          |-------0-----------0-----------0---------------------------
          |-----3---3-------6---6-------3---3-------------------------
          |---2-------2---5-------5---2-------2-----------------------
          |-0----------/3-----------0-----------------3-2---0---------
          |-------------------------------------3-2-1-----3-----------
          |-----------------------------------------------------------

          verse:
          |-----------------------------------------------------------------
          |-----------------------------------------------------------------
          |-----------------------------------------------------------------
          |-----------------------------------------------------------------
          |-1-1----------------------------1-1-------------------1----------
          |-----3-3-1-1-3-3-1-1-3-3-1-2-3~-----3-3-1-1-3-3-1-2-3---3~-1-3---
[ Tab from: http://www.guitartabs.cc/tabs/b/black_sabbath/anno_mundi_tab.html ]
          chorus:
          |-----------------------------------------------------------
          |---------------------------10^-----------------------------
          |-------------------------8---------------------------------
          |-----------------------------------------------8---5-------
          |-----------5-------6-----------------------5---------------
          |-3-------------6-----------------3-------------------------

           "Annu Mundi...."
          |-------------------------------------------------------
          |-------------------------------------------------------
          |-7------7------7------7------7------7------------------
          |-7------7------7------7------7------7------------------
          |-5-5-5--5-5-5--5-5-5--5-5-5--5-5-5--5-5-5--------------
          |-------------------------------------------------------

          |-----------------------------------------
          |----------3-5-3h5p3----------------------
          |-2------6-----------6----------------7-6-
          |-2--------------------7--5---7---8-------
          |-0---------------------------------------
          |-----------------------------------------

          |-----------------------------------------------
          |----------3-5-3h5p3----------------------------
          |-2------6-----------6----------------7---8-8---
          |-2--------------------7--5---7---8-------------
          |-0---------------------------------------------
          |-----------------------------------------------
Comments