Black Robin - So Sick Of You Chords & Tabs

 

So Sick Of You Chords & Tabs

Black Robin Chords & Tabs

Version: 1 Type: Tab 0 ratings
1 star 2 stars 3 stars 4 stars 5 stars
comments

So Sick Of You Tab

   
    -Robin Black-
   -So Sick Of You-
-Tabbed By Ryan Gregg-

About:
Great song but no tabs so I made this one.
The chorus varies a bit but I didn't bother
tabbing all the variations, and the lyrics
are as close as I could get them.

pm = Palm Mute
v  = Vibrato
b  = bend

Tunning:
Standard (eBGDAE)

Intro | Distortion:
e|----------------------------------|
B|----------------------------------|
G|-12-------------------12----12-14-|
D|-12-(x8)-12------10---12-12-12-14-| (x2)
A|-10------12-(x8)-10---10-12-10-12-|
E|---------10-------8------10-------|

Verse 1 | Distortion:
e|-------------------------|
B|-------------------------|
G|-------------12----------|
D|-------12----------12----| (x8)
A|-10-10----10----10----10-|
E|-------------------------|
  pm-----------------------

e|---------------------------------------------------------------|
B|---------------------------------------------------------------|
G|-12-12-14-14-12--14-14-16-16-14-12-12-14-14-12--12-12-14-14-12-|
D|-XX-XX-XX-XX-XX--XX-XX-XX-XX-XX-XX-XX-XX-XX-XX--XX-XX-XX-XX-XX-| (x2)
A|-10-10-12-12-10--12-12-14-16-12-10-10-12-12-10--10-10-12-12-10-|
E|---------------------------------------------------------------|

Prechorus | Distortion:
e|----------------------------------------|
B|----------------------------------------|
G|-------12----------14-12----14-12----12-|
D|-10----12--12--10--------12-------12----|
A|-10----10--12--10-----------------------|
E|--8--------10---8-----------------------|
[ Tab from: http://www.guitartabs.cc/tabs/b/black_robin/so_sick_of_you_tab.html ]
Chorus | Distortion:
e|--------------------------------------------------------------|
B|--------------------------------------------------------------|
G|-12-----------------------12----------------------12----12-14-|
D|-12-(x8)-12------10-------12-(x8)-12------10------12-12-12-14-|
A|-10------12-(x8)-10-(x16)-10------12-(x8)-10-(x8)-10-12-10-12-|
E|---------10-------8---------------10-------8---------10-------|

Verse 2 | Distortion:
e|-------------------------|
B|-------------------------|
G|-------------12----------|
D|-------12----------12----| (x4)
A|-10-10----10----10----10-|
E|-------------------------|
  pm-----------------------

e|----------------|
B|----------------|
G|-12-12-14-14-12-|
D|-XX-XX-XX-XX-XX-| (x2)
A|-10-10-12-12-10-|
E|----------------|

Solo | Distortion:
e|----------------------------------------------------------------------12bv-|
B|-------------------12-10-------12-10-------------------------12-10---------|
D|-(11)-(11)-(11)-9v-------12-9v-------9v-7v-9v-12-12-12-11-9v-------12------|
G|---------------------------------------------------------------------------|
A|---------------------------------------------------------------------------|
E|---------------------------------------------------------------------------|

Intro

Verse 1:
Well I'm afflicted with my own disease.
And I infect my friends and enemies.
But 'get wells' treated me on your knees.
You've run a nursery that was built to please.

Prechorus:
You run and you run,
and I run and I run.
And I got to keep running,
gotta keep running through.

Chorus:
I 'm feeling something inside
that makes me run and hide
I gotta get from you ooh ohh.
'Cause I'm so so so sick of you.

Verse 2:
Now I'm infected with your vaceene.
And now you'll never set my mind at ease.

Prechorus (See previous lyrics):

Chorus (See previous lyrics):

Chorus:
Ya there's something inside
that makes me run and hide
I gotta get from you ooh ohh.
'Cause I'm so so so sick of you.
Sick

Solo

Chorus (See previous lyrics):

Chorus (See previous lyrics):

Chorus:
I 'm feeling something inside
that makes me run and hide
I gotta get from you ooh ohh.
'Cause I'm so so so so so so so sick of you.
Comments