Black Rebel Motorcycle Club - Stop Chords & Tabs

 

Stop Chords & Tabs

Black Rebel Motorcycle Club Chords & Tabs

Version: 2 Type: Tab 0 ratings
1 star 2 stars 3 stars 4 stars 5 stars
comments

Stop Tab

   
--Stop
--Black Rebel Motorcycle Club
--Take Them On On Your Own

tabbed by Tomanthony

TO TUNE:

tune the "B" string to the 5th fret of the "G" string.


       OR

e---no change---|
B---1/2 step up-|
G---no change---|
D---no change---|
A---no change---|
E---no change---|


Legend:
 /=slide up
 \=slide down
 ^=hammer on/pull off
 x=muffle strings
 b=bend sting
    1/2=bend 1/2 a step/1 fret
   full=bend 1 step/2 frets
    (x)=release bend "x" being the fret number
 *=vibrato


Intro (basicaly a load of messing with the slide and feedback)
 feedback    slide
e-3---------------------------------------------------|
C-0------------19\--\--\-\-\--\-----------------------|
G-4------------19\--\--\-\-\--\-----------------------|
D-----------------------------------------------------|
A-----------------------------------------------------|
E-----------------------------------------------------|

e-----------------------------------------------------|
C-----------------------------------------------------|
G-----------------------------------------------------|
D-7--7--7-7---7--7--7-7---7--7--7-7---7--7--7-7-------|
A-0--0--0-0---0--0--0-0---0--0--0-0---0--0--0-0-------|
E-----------------------------------------------------|

e-----------------------------------------------------|
C-----------------------------------------------------|
G-----------------------------------------------------|
D-7--7--7-7---7--7--7-7---7--7--7-7---7--7--7-7-------|
A-0--0--0-0---0--0--0-0---0--0--0-0---0--0--0-0-------|
E-----------------------------------------------------|

Verse
  We dont like you,We just wanna try you...
e|----------------------------------------------------|
C|----------------------------------------------------|
G|----------------------------------------------------|
D|-7--7--7-7---7--7--7-7---7--7--7-7---7--7--7-7------|
A|-0--0--0-0---0--0--0-0---0--0--0-0---0--0--0-0------|
E|----------------------------------------------------|
  I'm tired of runnin',The feelin ain't comin'..
e--------------------------------------------------|-|
C--------------------------------------------------|-|
G--------------------------------------------------|-|
D-7--7--7-7---7--7--7-7---7--7--7-7---7--7--7-7----|-|
A-0--0--0-0---0--0--0-0---0--0--0-0---0--0--0-0----|-|
E--------------------------------------------------|-|

Fills
 This all could be simpler,it all could be simpler
e-----------------------------------------------------|
C-----------------------------------------------------|
G-----------12-12-11-12--12-11-12--12-11-12-11-12-11--|
D-----------------------------------------------------|
A-----------------------------------------------------|
E-----------------------------------------------------|
 But all this is sickness,The feelin ain't in this
e------------------------------------------------------------------|
C------------------------------------------------------------------|
G--------------------------------11---------------11--------11-----|
D-12-12-11-12--12-11-12-12-11-12--12-12--12-11-12--12-11-12--12-11-|
A------------------------------------------------------------------|
E------------------------------------------------------------------|

Chorus
  G
    Cos  we  dont  know  when to stop.....
e-----------------------------------------------------|
C-----------------------------------------------------|
G-12-12-12-12-12-12-12-12-12-12-12-12-12-12-12-12-----|
D--x--x--x--x--x--x--x--x--x--x--x--x--x--x--x--x-----|
A-10-10-10-10-10-10-10-10-10-10-10-10-10-10-10-10-----|
E-----------------------------------------------------|
  D
         We  dont  know  when to stop.....
e-----------------------------------------------------|
C-----------------------------------------------------|
G-11-11-11-11-11-11-11-11-11-11-11-11-11-11-11-11-----|
D--x--x--x--x--x--x--x--x--x--x--x--x--x--x--x--x-----|
A--9--9--9--9--9--9--9--9--9--9--9--9--9--9--9--9-----|
E-----------------------------------------------------|
  C
I try and I try but I can't get  enough.....
e-----------------------------------------------------|
C-----------------------------------------------------|
G-12-12-12-12-14-14-14-14-12-12-12-11-11-11-11-11-----|
D--x--x--x--x--x--x--x--x--x--x--x--x--x--x--x--x-----|
A-10-10-10-10-12-12-12-12-10-10-10--9--9--9--9--9-----|
E-----------------------------------------------------|

  D
  I wont fail you,You wont bleed for me.....
e-----------------------------------------------------|
C-----------------------------------------------------|
G-11-11-11-11-11-11-11-11-11-11-11-11-11-11-11-11-----|
D--x--x--x--x--x--x--x--x--x--x--x--x--x--x--x--x-----|
A--9--9--9--9--9--9--9--9--9--9--9--9--9--9--9--9-----|
E-----------------------------------------------------|

Bridge

e-----------0-----------0-----------0-----------0-----|
C-----------9-----------9-----------9-----------9-----|
G-----------9-----------9-----------9-----------9-----|
D-7--7--7-7---7--7--7-7---7--7--7-7---7--7--7-7-------|
A-0--0--0-0---0--0--0-0---0--0--0-0---0--0--0-0-------|
E-----------------------------------------------------|

Verse 2
 Have I been sinful,Have I been sinful....
e|-----------0-----------0-----------0-----------0----|
C|-----------9-----------9-----------9-----------9----|
G|-----------9-----------9-----------9-----------9----|
D|-7--7--7-7---7--7--7-7---7--7--7-7---7--7--7-7------|
A|-0--0--0-0---0--0--0-0---0--0--0-0---0--0--0-0------|
E|----------------------------------------------------|

Its all been for nothin',you give in for nothin'....
e-----------0-----------0-----------0-----------0--|-|
C-----------9-----------9-----------9-----------9--|-|
G-----------9-----------9-----------9-----------9--|-|
D-7--7--7-7---7--7--7-7---7--7--7-7---7--7--7-7----|-|
A-0--0--0-0---0--0--0-0---0--0--0-0---0--0--0-0----|-|
E--------------------------------------------------|-|
                   Fills
                e----------------------------------------|
                C----------------------------------------|
                G-----------------12^14------------12^14-|
                D------------12^14------------12^14------|
                A--0-0--10^12------------10^12-----------|
                E----------------------------------------|

It's hard not to die when your time has been cut off..
                       full           full    full       full
e---------------------------------------------------------------------------|
C---------------------------------------------------------------------------|
G---------------12^14-14b-(14)12-----12b---14b-(14)-12----------------------|
D----------12^14----------------14-12-----------------14-12-----------12-14-|
A-0-0-10^12-----------------------------o------------------10b-0-10-12------|
E---------------------------------------------------------------------------|

But I have been grateful,You know this can take more
e---------------------------------------------------------------------------|
C------------------------------------------------------11-------------------|
G--------------12-14-------------14-12---12-11-12-11-12--12-11--12-11-12-11-|
D---------12-14-------------12-14-----------------------------14------------|
A-12-10-12----------12-10-12------------------------------------------------|
E---------------------------------------------------------------------------|

Chorus
  G
    Cos  we  dont  know  when to stop.....
e-----------------------------------------------------|
C-----------------------------------------------------|
G-12-12-12-12-12-12-12-12-12-12-12-12-12-12-12-12-----|
D--x--x--x--x--x--x--x--x--x--x--x--x--x--x--x--x-----|
A-10-10-10-10-10-10-10-10-10-10-10-10-10-10-10-10-----|
E-----------------------------------------------------|
  D
         We  dont  know  when to stop.....
e-----------------------------------------------------|
C-----------------------------------------------------|
G-11-11-11-11-11-11-11-11-11-11-11-11-11-11-11-11-----|
D--x--x--x--x--x--x--x--x--x--x--x--x--x--x--x--x-----|
A--9--9--9--9--9--9--9--9--9--9--9--9--9--9--9--9-----|
E-----------------------------------------------------|
  C
I try and I try but I can't get  enough.....
e-----------------------------------------------------|
C-----------------------------------------------------|
G-12-12-12-12-14-14-14-14-12-12-12-11-11-11-11-11-----|
D--x--x--x--x--x--x--x--x--x--x--x--x--x--x--x--x-----|
A-10-10-10-10-12-12-12-12-10-10-10--9--9--9--9--9-----|
E-----------------------------------------------------|

  D
  I wont fail you,You wont bleed for me.....
e-----------------------------------------------------|
C-----------------------------------------------------|
G-11-11-11-11-11-11-11-11-11-11-11-11-11-11-11-11-----|
D--x--x--x--x--x--x--x--x--x--x--x--x--x--x--x--x-----|
A--9--9--9--9--9--9--9--9--9--9--9--9--9--9--9--9-----|
E-----------------------------------------------------|

Bridge
 with slide & wah pedal
e-------------------------------------|
C-6/7\6-\4---\12-12-12--\11-11-11\----|
G-6/7\6-\4---\12-12-12--\11-11-11\----|
D7------------------------------------|
A0------------------------------------|
E-------------------------------------|
[ Tab from: http://www.guitartabs.cc/tabs/b/black_rebel_motorcycle_club/stop_tab_ver_2.html ]
e-------------------------------------|
C-6/7\6-\4---\12-12-12--\11-11-11\----|
G-6/7\6-\4---\12-12-12--\11-11-11\----|
D7------------------------------------|
A0------------------------------------|
E-------------------------------------|

e-------------------------------------|
C-6/7\6-\4---\12-12-12--\11-11-11\----|
G-6/7\6-\4---\12-12-12--\11-11-11\----|
D7------------------------------------|
A0------------------------------------|
E-------------------------------------|

e-------------------------------------|
C-6/7\6-\4---\12-12-12--\11-11-11\----|
G-6/7\6-\4---\12-12-12--\11-11-11\----|
D7------------------------------------|
A0------------------------------------|
E-------------------------------------|

Interlude
 C
e-----------------------------------------------------|
C-----------------------------------------------------|
G-----------------------------------------------------|
D-----------------------------------------------------|
A-12-12-12-12-12-12-12-12-10-10-10--------------------|
E-----------------------------------8--8--8--8--8-----|
 A
e-----------------------------------------------------|
C-----------------------------------------------------|
G-----------------------------------------------------|
D-----------------------------------------------------|
A-------------10-10-10--------------------------------|
E-10-10-10-10----------12-12-12-12-12-12-12-12-12-----|

 C
e-----------------------------------------------------|
C-----------------------------------------------------|
G-----------------------------------------------------|
D-----------------------------------------------------|
A-12-12-12-12-12-12-12-12-10-10-10--------------------|
E-----------------------------------8--8--8--8--8-----|
 D
e-----------------------------------------------------|
C-----------------------------------------------------|
G-----------------------------------------------------|
D-----------------------------------------------------|
A-------------10-10-10--------------------------------|
E-10-10-10-10----------12-12-12-12-12-12-12-12-12-----|

                        Fill
                             1/2___________

                          e---------------------------|
                          C-----7----7--7-------------|
                          G-11b---11--11--------------|
                          D---------------------------|
                          A---------------------------|
                          E---------------------------|

 with slide & wah pedal
e-------------------------------------|
C-6/7\6-\4---\12-12-12--\11-11-11\----|
G-6/7\6-\4---\12-12-12--\11-11-11\----|
D7------------------------------------|
A0------------------------------------|
E-------------------------------------|

e-------------------------------------|
C-6/7\6-\4---\12-12-12--\11-11-11\----|
G-6/7\6-\4---\12-12-12--\11-11-11\----|
D7------------------------------------|
A0------------------------------------|
E-------------------------------------|

Verse 3
 We dont like you,We just wanna try you....
e|-----------0-----------0-----------0-----------0----|
C|-----------9-----------9-----------9-----------9----|
G|-----------9-----------9-----------9-----------9----|
D|-7--7--7-7---7--7--7-7---7--7--7-7---7--7--7-7------|
A|-0--0--0-0---0--0--0-0---0--0--0-0---0--0--0-0------|
E|----------------------------------------------------|

I'm tired of runnin',The feelin ain't cumin'....
e-----------0-----------0-----------0-----------0--|-|
C-----------9-----------9-----------9-----------9--|-|
G-----------9-----------9-----------9-----------9--|-|
D-7--7--7-7---7--7--7-7---7--7--7-7---7--7--7-7----|-|
A-0--0--0-0---0--0--0-0---0--0--0-0---0--0--0-0----|-|
E--------------------------------------------------|-|
                   Fills
                e----------------------------------------|
                C----------------------------------------|
                G-----------------12^14------------12^14-|
                D------------12^14------------12^14------|
                A--0-0--10^12------------10^12-----------|
                E----------------------------------------|

It all could be different,It all could be different....
                       full           full    full       full
e---------------------------------------------------------------------------C--|
G---------------12^14-14b-(14)12-----12b---14b-(14)-12-------------------------|
D----------12^14----------------14-12-----------------14-12-----------12-14----|
A-0-0-10^12-----------------------------o------------------10b-0-10-12---------|
E------------------------------------------------------------------------------|

But all this is sickness,The feelin ain't in this....
e---------------------------------------------------------------------------|
C------------------------------------------------------11-------------------|
G--------------12-14-------------14-12---12-11-12-11-12--12-11--12-11-12-11-|
D---------12-14-------------12-14-----------------------------14------------|
A-12-10-12----------12-10-12------------------------------------------------|
E---------------------------------------------------------------------------|


Chorus
  G
    Cos  we  dont  know  when to stop.....
e-----------------------------------------------------|
C-----------------------------------------------------|
G-12-12-12-12-12-12-12-12-12-12-12-12-12-12-12-12-----|
D--x--x--x--x--x--x--x--x--x--x--x--x--x--x--x--x-----|
A-10-10-10-10-10-10-10-10-10-10-10-10-10-10-10-10-----|
E-----------------------------------------------------|
  D
         We  dont  know  when to stop.....
e-----------------------------------------------------|
C-----------------------------------------------------|
G-11-11-11-11-11-11-11-11-11-11-11-11-11-11-11-11-----|
D--x--x--x--x--x--x--x--x--x--x--x--x--x--x--x--x-----|
A--9--9--9--9--9--9--9--9--9--9--9--9--9--9--9--9-----|
E-----------------------------------------------------|
  C
I try and I try but I can't get  enough.....
e-----------------------------------------------------|
C-----------------------------------------------------|
G-12-12-12-12-14-14-14-14-12-12-12-11-11-11-11-11-----|
D--x--x--x--x--x--x--x--x--x--x--x--x--x--x--x--x-----|
A-10-10-10-10-12-12-12-12-10-10-10--9--9--9--9--9-----|
E-----------------------------------------------------|

  D
  I wont fail you,You wont bleed for me.....
e-----------------------------------------------------|
C-----------------------------------------------------|
G-11-11-11-11-11-11-11-11-11-11-11-11-11-11-11-11-----|
D--x--x--x--x--x--x--x--x--x--x--x--x--x--x--x--x-----|
A--9--9--9--9--9--9--9--9--9--9--9--9--9--9--9--9-----|
E-----------------------------------------------------|

Outro
 with slide & wah pedal
e-------------------------------------|
C-6/7\6-\4---\12-12-12--\11-11-11\----|
G-6/7\6-\4---\12-12-12--\11-11-11\----|
D7------------------------------------|
A0------------------------------------|
E-------------------------------------|

e-------------------------------------|
C-6/7\6-\4---\12-12-12--\11-11-11\----|
G-6/7\6-\4---\12-12-12--\11-11-11\----|
D7------------------------------------|
A0------------------------------------|
E-------------------------------------|

e-------------------------------------|
C-6/7\6-\4---\12-12-12--\11-11-11\----|
G-6/7\6-\4---\12-12-12--\11-11-11\----|
D7------------------------------------|
A0------------------------------------|
E-------------------------------------|

e-------------------------------------|
C-6/7\6-\4---\12-12-12--\11-11-11\----|
G-6/7\6-\4---\12-12-12--\11-11-11\----|
D7------------------------------------|
A0------------------------------------|
E-------------------------------------|
       1/2   full              1/2   full
e------------15b--15-----------------15b--15------|
C----13b-13------------------13b-13---------------|
G-------------------14**--------------------14**--|
D----------14**--------------------14**-----------|
A-0-0---------------------0-0---------------------|
E-------------------------------------------------|

     1/2   full
e------------15b--15-----------------------------------------|
C----13b-13--------------------------------------------------|
G-------------------14**--------------12-14------------------|
D----------14**------------------12-14-----------------------|
A-0-0--------------------12-10-12----------12-10-12----------|
E--------------------------------------------------8-8-8-8-8-|

     1/2   full              1/2   full      1/2   full
e------------15b--15-----------------15b-----------15b-|
C----13b-13------------------13b-13--------13b-13------|
G-------------------14**-------------------------------|
D----------14**--------------------14**----------14**--|
A-0-0---------------------0-0-----------0-0------------|
E------------------------------------------------------|
        1/2                  1/2
e-----------------3----------------3------------------|
C-------0---------0----------0------------------------|
G-2-----4b-(4)---------4-----4b-(4)--------2----------|
D-2----------------------2------------------2---------|
A-0----------------------0-------------------0--------|
E-----------------------------------------------------|

Fin*


questions,suggestions and complaints to:

                            dirtyaldante@hotmail.com
Comments