Black Rebel Motorcycle Club - Stop Chords & Tabs

 

Stop Chords & Tabs

Black Rebel Motorcycle Club Chords & Tabs

Version: 3 Type: Bass Tab 0 ratings
1 star 2 stars 3 stars 4 stars 5 stars
comments

Stop Bass Tab

Song----------|Stop
By------------|Black Rebel Motorcycle Club
Album---------|Take Them On On Your Own

tabbed by TomAnthony

/=slide up
\=slide down

Intro/Verse
G----------------------------------------------------------|
D---------------------5------------------------------------|
A-0-0-3-0-5-3-0-3--0-0-5-5-3-0-3---------------------------|
E----------------------------------------------------------|

G----------------------------------------------------------|
D---------------------5------------------------------------|
A-0-0-3-0-5-3-0-3--0-0-5-5-3-0-3---------------------------|
E----------------------------------------------------------|

Verse
G----------------------------------------------------------|
D---------------------5------------------------------------|
A-0-0-3-0-5-3-0-3--0-0-5-5-3-0-3---------------------------|
E----------------------------------------------------------|

G----------------------------------------------------------|
D---------------------5------------------------------------|
A-0-0-3-0-5-3-0-3--0-0-5-5-3-0-3---------------------------|
E----------------------------------------------------------|

Chorus
G---------------------------------------------------------------------|
D--5-5-5-5-5-5-5-5--5-5-5-5-5-5-5-5-----------------------------------|
A----------------------------------5-5-5-5-5-5-5-5-5--5-5-5-5-5-5-5-5-|
E---------------------------------------------------------------------|

G---------------------------------------------------------------------|
D---------------------------------------------------------------------|
A-3-3-3-3-3-3-3-3--3-3-3-3-3-0-3-0-3/5-5-5-5-5-5-5-5--5-5-5-5-5-5-5-5-|
E---------------------------------------------------------------------|
[ Tab from: http://www.guitartabs.cc/tabs/b/black_rebel_motorcycle_club/stop_btab_ver_3.html ]
Interlude (try keep your head up high.....etc..)
G--------------------------------------------------------------------|
D---------------------------------5/7-7-7-7-7-7-7--7-7-7-7-7-5-------|
A-3-3-3-3-3-3-3-3--3-3-3-3-3-3-3-3-----------------------------7-5---|
E--------------------------------------------------------------------|

G--------------------------------------------------------------------|
D--------------------------------------------------------------------|
A-3-3-3-3-3-3-3-3--3-3-3-3-3-0-3-0-3/5-5-5-5-5-5-5--5-5-5-5-5-3-0-3--|
E--------------------------------------------------------------------|

Outro
G-----------------------------------------------------|
D-7-7-7/-9-9\-7-7\-5-5/-9-9\-7-7--10-9-7--------------|
A-----------------------------------------------------|
E-----------------------------------------------------|

G-----------------------------------------------------|
D-7-7-7/-9-9\-7-7\-5-5/-9-9\-7-7--10-9-7--------------|
A-----------------------------------------------------|
E-----------------------------------------------------|

G-----------------------------------------------------|
D-7-7-7/-9-9\-7-7\-5-5/-9-9\-7-7--10-9-7--------------|
A-----------------------------------------------------|
E-----------------------------------------------------|

G-----------------------------------------------------|
D-7-7-7/-9-9\-7-7\-5-5/-9-9\-7-7--10-9-7--------------|
A-----------------------------------------------------|
E-----------------------------------------------------|

G-----------------------------------------------------|
D--10-10-10\-9-9\-7-7-7/12-12-12\-10-10\-9-9\-7/------|
A-----------------------------------------------------|
E-----------------------------------------------------|

G--------------------------------------12--12-14-12-14-|
D--/14-14-14\-12-12\-10-10-\9/14-14-14---10---------12-|
A---------------------------------------------------0--|
E------------------------------------------------------|


Fin~


questions
 dirtyaldante@hotmail.com
Comments