Black Rebel Motorcycle Club - Spread Your Love Chords & Tabs

 

Spread Your Love Chords & Tabs

Black Rebel Motorcycle Club Chords & Tabs

Version: 6 Type: Tab 0 ratings
1 star 2 stars 3 stars 4 stars 5 stars
comments

Spread Your Love Tab

   
-----------------------------------------------------------------------------
            Spread Your Love - Black Rebel Motorcycle Club
-----------------------------------------------------------------------------
Tabbed by:OliQ
Email:olic007@hotmail.com

Tuning: standard E,A,D,G,B,E

The Bass does this intro twice, and on the second time around the 
guitar comes in with a D chord. 

e|---------------------------------------------------------------------------
B|---------------------------------------------------------------------------
G|---------------------------------------------------------------------------
D|---------------------------------------------------------------------------
A|---55-555-555-----------x2-------------------------------------------------
E|---------------1-3---------------------------------------------------------

Main Riff
e|---222222--1-3-------------------------------------------------------------
B|---333333--1-3-------------------------------------------------------------
G|---222222--2-4-------------------------------------------------------------
D|---000000--3-5-------------------------------------------------------------
A|---000000--3-5-------------------------------------------------------------
E|---000000--1-3-------------------------------------------------------------
	D    F G

Do this riff x2 and then.....

e|---------------------------------------------------------------------------
B|---------------------------------------------------------------------------
G|---------------------------------------------------------------------------
D|----5b5b5b5b5b-3b----------------------------------------------------------
A|---------------------------------------------------------------------------
E|---------------------------------------------------------------------------

Main Riff again x6 this time
Then......
[ Tab from: http://www.guitartabs.cc/tabs/b/black_rebel_motorcycle_club/spread_your_love_tab_ver_6.html ]
e|---------------------------------------------------------------------------
B|----15--13-----15--13------------------------------------------------------
G|-----------10---------10----5-5-5-5-5-5b-3b--------------------------------
D|---------------------------------------------------------------------------
A|---------------------------------------------------------------------------
E|---------------------------------------------------------------------------

Main Riff again x10 

  Solo........
e|---------------------------------------------------------------------------
B|--(15..... x20)-----(13....x11)--------------------------------------------
G|---------------------------------(12....x7)-(10...x3)-(12....x3)-----------
D|---------------------------------------------------------------------------
A|---------------------------------------------------------------------------
E|---------------------------------------------------------------------------

e|---------------------------------------------------------------------------
B|-------------12b-10-12b 10-(15...x10)12b-10-12b-10-------------------------
G|---(7...x7)----------------------------------------------------------------
D|---------------------------------------------------------------------------
A|---------------------------------------------------------------------------
E|---------------------------------------------------------------------------

e|---------------------------------------------------------------------------
B|-----15-13-----15-13-------------------------------------------------------
G|-----------10--------10--(12b...x5)-10b------------------------------------
D|---------------------------------------------------------------------------
A|---------------------------------------------------------------------------
E|---------------------------------------------------------------------------

Main riff again x10
and solo again but minus the.....

e|---------------------------------------------------------------------------
B|------15-13----15-13-------------------------------------------------------
G|------------10-------10-(12b....x7)-10b------------------------------------
D|---------------------------------------------------------------------------
A|---------------------------------------------------------------------------
E|---------------------------------------------------------------------------

main riff again x 8 and end on D chord.

Thats it! It looks like a lot but its all pretty simple and slow.
Oli
Comments