Black Rebel Motorcycle Club - Spread Your Love Chords & Tabs

 

Spread Your Love Chords & Tabs

Black Rebel Motorcycle Club Chords & Tabs

Version: 4 Type: Tab 0 ratings
1 star 2 stars 3 stars 4 stars 5 stars
comments

Spread Your Love Tab

Intro (Bass)

G<-------------------------->
D<-------------------------->
A<----5-5-5-5-5-5-5-5------->  Do This 3 times then..... 
E<----------------------1--3>

Note: Guitar Player Strums D Chord Muted Then Cleanly

G<-------------------------->
D<-------------------------->
A<----5-5-5-5-5-5-5-5---8-10>  Carry On With This Bass Line Until
E<-------------------------->

BRIDGE
G<--777777777-11-14-17-17-17-17-17-17-17-17-17-17-17-17-17->
D<--------------------------------------------------------->
A<--------------------------------------------------------->
E<--------------------------------------------------------->

The Guitarist Then Plays D,F,G or D5,F5,G5 The Play This Lead As A Fill 

Guitar

E<--10----------------->
B<------13------------->
G<-----------10b------->     Play This Twice Then.......
D<---------------12---->
A<--------------------->
e<--------------------->


E<------------------------------------>
B<------------------------------------>
G<------------------------------------>
D<-5b5b5b5b5b5b-r5--3b3b3b3b3b3b3b-r3->
A<------------------------------------>
e<------------------------------------>


Lyrics
[ Tab from: http://www.guitartabs.cc/tabs/b/black_rebel_motorcycle_club/spread_your_love_tab_ver_4.html ]
Spread your love like a fever
And don't you ever come down
Spread your love like a fever
And don't you ever come down
I spread my love like a fever
I ain't ever coming down

She gave me love like a big fire
I only saw it once
She spread her love like a fever
She's bad, but not enough

(I'm so little)
Spread your love like a fever
(I'm so little)
And don't you ever come down
(I'm so little)
Spread your love like a fever
(I'm so little)
And don't you ever come down
I spread my love like a fever
I ain't ever coming down

She spread her love like a big fire
I only saw it once
She gave me love like a sister
She's bad, but not enough

(I'm so little)
Spread your love like a fever
(I'm so little)
And don't you ever come down
(I'm so little)
Spread your love like a fever
(I'm so little)
And don't you ever come down
I spread my love like a fever
I ain't ever coming down

Spread your love like a fever
And don't you ever come down
Spread your love like a fever
And don't you ever come down
Spread your love like a fever
Spread your love like a fever
Spread your love like a fever
Spread your love like a fever

Cheers Gavin Jackiecrumble
Comments