Black Rebel Motorcycle Club - In Like The Rose Chords & Tabs

 

In Like The Rose Chords & Tabs

Black Rebel Motorcycle Club Chords & Tabs

Version: 2 Type: Bass Tab 0 ratings
1 star 2 stars 3 stars 4 stars 5 stars
comments

In Like The Rose Bass Tab

Song................In Like The Rose
Artist..............Black Rebel Motorcyle Club
Album...............Take Them On On Your Own

tabbed by TomAnthony

\slide down
/=slide up
^=hammer on/pull off (think about it)

Intro
G------14-----14-----14-16-16-16-14--------14-----14-----14-16-16-16-14-|
D-16-16--14-14--13-13-----------------16-16--14-14--13-13---------------|
A-----------------------------------------------------------------------|
E-----------------------------------------------------------------------|

G------14-----14-----14-16-16-16-14--------14-----14-----14-16-16-16-14-|
D-16-16--14-14--13-13-----------------16-16--14-14--13-13---------------|
A-----------------------------------------------------------------------|
E-----------------------------------------------------------------------|
Verse
G------------------------------------------------------------------|
D--16--14-14-13-13-12----------------------------------------------|
A---------------------14/16-16-14-12-12-14-14----------------------|
E-14-14--------------------------------------12-12-14-14-12^14-----|

G------------------------------------------------------------------|
D--16--14-14-13-13-12----------------------------------------------|
A---------------------14/16-16-14-12-12-14-14----------------------|
E-14-14--------------------------------------12-12-14-14-12^14-----|
Chorus
G------------------------------------------------------------------|
D------------------------------------------------------------------|
A-9-9-9-9-9-9-9-9-7-7-7-7-7-7-7-7-6-6-6-6-6-6-6-6------------------|
E------------------------------------------------7-7-7-7-7-7-7-7---|
[ Tab from: http://www.guitartabs.cc/tabs/b/black_rebel_motorcycle_club/in_like_the_rose_btab_ver_2.html ]
G------------------------------------------------------------------|
D------------------------------------------------------------------|
A-9-9-9-9-9-9-9-9-7-7-7-7-7-7-7-7-6-6-6-6-6-6-6-6------------------|
E------------------------------------------------7-7-7-7-7-5-7-5---|
End Fill
G----9-11-9--9---------------------8-8-8-----7-----9---------------|
D-/11------11-11\9-7-----9-9-9-------------------------------------|
A-------------------9-7-7-7-7-7-6-6-6-6-6-5-5-5/7-7-7--------------|
E------------------------------------------------------------------|

G--------------------11-------------11-----------------------------|
D----7-9-7-9---9-9/11--11-------9/11--11---7-----9-----------------|
A-9-9-9---9-7-7-7--------6-6-6-6--------5-5-5-7-7------------------|
E------------------------------------------------------------------|

G------------------------------------------------------------------|
D------------------------------------------------------------------|
A-9-7-9-7-9------9-7-9-7-9-----9-7-9-7-9-----9-7-9-7-9-------------|
E----------5-7-5----------5-7-5---------5-7-5---------5-7-5--------|

G------------------------------------------------------------------|
D------------------------------------------------------------------|
A-9^7^9-9^7^9-9-----9^7^9-9^7^9-9-----9-7-9-7-9-----9-7-9-7-9------|
E--------------5-7-5-------------5-7-5---------5-7-5---------5-7-5-|
                                                  slow........
G------------------------------------------------------------------|
D------------------------------------------------------------------|
A-9----------------------------------------2-------2-2-2-2-2-2-2-2-|
E-----------------7------------2-----------------------------------|

Fin~
Comments