Black Rebel Motorcycle Club - In Like The Rose Chords & Tabs

 

In Like The Rose Chords & Tabs

Black Rebel Motorcycle Club Chords & Tabs

Version: 1 Type: Bass Tab 0 ratings
1 star 2 stars 3 stars 4 stars 5 stars
comments

In Like The Rose Bass Tab

IN LIKE THE ROSE
Black Rebel Motorcycle Club
Bass Tab

tabbed by Michael Massberg
          michaelmassberg@gmx.de

Be sure to check out http://www.brmc-basstabs.de.vu
for more B.R.M.C. Basstabs and mp3s to 
every single riff!

Intro

G--------14--------14--------14/16--16-16p14-
D--16-16----14--14----13--13-----------------
A--------------------------------------------
E--------------------------------------------



Verse "In like the rose..."

G------------------------------------
D--16-16-16-14---14-14-13---13-13-12-
A------------------------------------
E------------------------------------

 ----------------------
 --7h9/11-11-9-7-9-----
 ------------------7-9-
 ----------------------



Chorus "This time I'm on a wire..."
       "Please darling..."

G-----------------------------------
D-----------------------------------
A--9---9-9-9-9-9-9/7---7-7-7-7-7-7/-
E-----------------------------------

 ----------------------------------
 ----------------------------------
 --6---6-6-6-6-6-6-2-2-2-2-2-2-2-2-
 ----------------------------------



Bridge "I've been blind..."
       "Time keeps this love alive..."
[ Tab from: http://www.guitartabs.cc/tabs/b/black_rebel_motorcycle_club/in_like_the_rose_btab.html ]
G-----------------------------------
D-----------------------------------
A--9---9-9-9-9-9-9/7---7-7-7-7-7-7/-
E-----------------------------------

 ----------------------------------
 ------------------9-9-9-9-9-9-9-7-
 --6---6-6-6-6-6-6-----------------
 ----------------------------------



Ending (4:17)

G-----9-11--9----9----------------------------
D--11---------11----11--9-7-------9---9---9---
A---------------------------9-7-7---7---7---7-
E---------------------------------------------

 ----------------------------------
 ----------------------------------
 --6-6-6-6-6-6-6-6-5-5-5-5-7-7-7-7-
 ----------------------------------


 -------------------------------------
 ------7---9-7---9-----------11-11-11-
 --9-9---9-----9---7-7-7-7-7----------
 -------------------------------------

             | double speed  |
 ----------------------------------------------
 ------------11-11-11-11-11-11-----------------
 --6-6-6-6-6-------------------5-5-5-5-7-7-7-7-
 ----------------------------------------------


G------------------
D------------7-9-7-
A--9-7-9-7-9-------    4x
E------------------

G------------------
D------------------
A--9-7-9-7-9-------    4x
E------------5-7-5-


G-------------------
D-------------------
A--9~--2~--/9~--2~--
E-------------------


Comments