Black Rebel Motorcycle Club - Going Under Chords & Tabs

 

Going Under Chords & Tabs

Black Rebel Motorcycle Club Chords & Tabs

Version: 1 Type: Bass Tab 0 ratings
1 star 2 stars 3 stars 4 stars 5 stars
comments

Going Under Bass Tab

GOING UNDER
Black Rebel Motorcycle Club
Bass Tab

tabbed by Michael Massberg
          michaelmassberg@gmx.de

Be sure to check out http://www.brmc-basstabs.de.vu
for more B.R.M.C. Basstabs and mp3s to 
every single riff!

Verse

G----------------------------------
D----------7p5-----------5h7p5-----
A--7---7-------5-7---7-7-------7-5-
E----------------------------------

 ----------------------------------
 ----------7p5-----------5-5h7-7p5-
 --7---7-------5-7---7-7-----------
 ----------------------------------



Chorus "Feels like you're going under..."

G----------------------------------
D----------------------------------
A--7---7-7-7-7-7-7-5-5-5-5-5-5-5-5-    4x
E----------------------------------



Instrumental Middle Section

G------------------------------------
D------------------------------------
A--7---7-7-------5h7---7-7-7---------
E----------5-5-5-------------5-5-5-5-


[ Tab from: http://www.guitartabs.cc/tabs/b/black_rebel_motorcycle_club/going_under_btab.html ]
Ending (2:38)

G------------------------------------
D------------------------------------
A--7---7-7-------5h7---7-7-7---------    4x
E----------5-5-5-------------5-5-5-5-

                                            |      fast     |
 --------------------------------12---------------------------
 ----12h14-14-14----------12h14-----14--14--------12-------12-
 ----------------12-12-12-------------------12h14----12h14----
 -------------------------------------------------------------

 --------------------------------12-12----------------
 --12h14---14-14----------12h14--------14-12-10-------
 ----------------12-12-12-----------------------12-10-
 -----------------------------------------------------


G--------------------------------------------------
D--14---14-14----------12h14--14-14-14----------12-
A-------------12-12-12-----------------12-12-12----    2x
E--------------------------------------------------


Comments