Black Rebel Motorcycle Club - Aint No Easy Way Chords & Tabs

 

Aint No Easy Way Chords & Tabs

Black Rebel Motorcycle Club Chords & Tabs

Version: 1 Type: Tab 0 ratings
1 star 2 stars 3 stars 4 stars 5 stars
comments

Aint No Easy Way Tab

   
my guess at the tuning is d#, g#, d#,f#, a#, d#
[ Tab from: http://www.guitartabs.cc/tabs/b/black_rebel_motorcycle_club/aint_no_easy_way_tab.html ]
d#---0--0--3--0--0--0--0--0--0--0--0--0--0--3--0--0--0--0----------------|
a#---5--5--5--5--5--5--3--3--5--5--5--5--5--5--5--5--3--3----------------|
f#---4--4--4--4--4--4--4--4--4--4--4--4--4--4--4--4--4--4----------------|
d#---0--0--0--0--0--0--0--0--0--0--0--0--0--0--0--0--0--0----------------|
g#-----------------------------------------------------------------------|
d#----------------------------------------------------------------b3---0-|

theres no strumming pattern to follow there, thats just the general idea

the slidey bit...

d#-----------------------------------------------------|
a#-----------------------------------------------------|
f#-----------------------------------------------------|
d#--7s12--12--7s12--12--7s12--12--10--9--7-------------|
g#--7s12--12--7s12--12--7s12--12--10--9--7-------------|
d#-----------------------------------------------------|

if anyone has any questions...
philipo_84@hotmail.com
Comments