Black Lips - Throw It Away Chords & Tabs

 

Throw It Away Chords & Tabs

Black Lips Chords & Tabs

Version: 1 Type: Bass Tab 0 ratings
1 star 2 stars 3 stars 4 stars 5 stars
comments

Throw It Away Bass Tab

Band: The Black Lips
Song: Throw It Away
Tabbed by: Daniel Rodriguez
E-mail: label1987@hotmail.com

Intro
G|-------------------------------------|
D|-------------------------------------|
A|--4-4-4-4-4-4-4-4-4-4-4-4-4-4-4-4-4--|
E|-------------------------------------|

Riff 1
G|-----------------------------------------------|
D|-----------------------------------------------|
A|---3-3--5-5--2-2--7-7--5-5--4-4-6-6-6-8-8-8----|
E|-----------------------------------------------|
[ Tab from: http://www.guitartabs.cc/tabs/b/black_lips/throw_it_away_btab.html ]
Riff 2
G|-----------------------------------------------|
D|-----------------------------------------------|
A|-3-3---5-5---7-7---8-8---3-3---5-5---7-7---4-4-|
E|-----------------------------------------------|

Ending
G|------------------------------------|
D|------------------------------------|
A|-----3~----4~----3~----4~----4~-----|
E|------------------------------------|

ORDER
Intro
Riff 1 (2x)
Riff 2 (4x)
Riff 1 (4x)
Riff 2 (4x)
Riff 1 (4x)
Ending

if you have any comments or corrections e-mail me.enjoy!
Check out other tabs by me:
The Clash "I'm So Bored With The U.S.A."
The Clash "Police and Thieves"
The Clash "Rebel Waltz"
The Clash "The Equaliser"
The Clash "The Crooked Beat"
The Clash "Listen"
Black Flag "Paralize"
Patty Smith "Till Victory"
Gang of Four "Love Like Anthrax"
Q And Not U "So Many Animal Calls"
Comments