Black Label Society - The Beginning At Last Chords & Tabs

 

The Beginning At Last Chords & Tabs

Black Label Society Chords & Tabs

Version: 1 Type: Tab 0 ratings
1 star 2 stars 3 stars 4 stars 5 stars
comments

The Beginning At Last Tab

Author/Artist: Black Label Society
Title: The Beginning...At Last
Album: Sonic Brew
Tabbed by: SqweekyDrop B tuning: low to high - B,A,D,G,B,e

-------------------------------------------------------------------------------
-------------------------------------------------------------------------------
-------------------------------------------------------------------------------
-------------------------------------------------------------------------------
-------------------------------------------------------------------------------
-0-10h12-12-10-0-10h12-12-10-0-10h12-10--10h12-12-10-0-10h12-12-10-0-10h12-10--
 intro riff

-------------------------------------------------------------------------------
-------------------------------------------------------------------------------
-------------------------------------------------------------------------------
---4-4---4-4---4---4-4---4-4---4---4-4---4-4---4-------------------------------
-0h2-2-0h2-2-0h2-0h2-2-0h2-2-0h2-0h2-2-0h2-2-0h2-------------------------------
-------------------------------------------------3h5-5-3h5-5-3h5-5-3h5-5-3h5-3~
 verse riff      			                                     ah
[ Tab from: http://www.guitartabs.cc/tabs/b/black_label_society/the_beginning_at_last_tab.html ]
-------------------------------------------------------------------------------
-------------------------------------------------------------------------------
-------------------------------------------------------------------------------
-9/10-11/12-12-12-12-11--12--12\11-10\9-9-9-9-7--9-----------------------------
-7/8--9-/10-10-10-10-10--10--10\9--8-\7-7-7-7-7--7-----------------------------
-------------------------------------------------------------------------------
 chorus riff

-------------------------------------|-------------------------|---------------
-------------------------------------|-------------------------|---------------
-------------------------------------|-------------------------|---------------
-9/10-11/12-12-12-12-11--12-12\11-10-|-------------------------|-9-9-9-9-9-9-10
-7/8--9-/10-10-10-10-10--10-10\9--8--|-------------------------|-7-7-7-7-7-7-8-
-------------------------------------|-5-3-0-5-3-0-5-3-0-5-3-0-|---------------
 chorus riff (con't.)                  1st time                 2nd time

----------------------------------------------|--------------------------------
----------------------------------------------|--------------------------------
----------------------------------------------|-4------------------------------
----------------------------------------------|-4------------------------------
----------------------------------------------|-2------------------------------
-3b--0--3b--0--0--3b--0--5fb~~--3--5br-5~-----|--------------------------------
 interlude riff                        ah       end riff with this/last time

-------------------------------------------------------------------------------
-------------------------------------------------------------------------------
-------------------------------------------------------------------------------
-----4-----4-----4-----4-----4-------------------------------------------------
-0h2---0h2---0h2---0h2---0h2---2----repeat-until-solo--------------------------
-------------------------------------------------------------------------------
Comments