Black Label Society - Suicide Messiah Chords & Tabs

 

Suicide Messiah Chords & Tabs

Black Label Society Chords & Tabs

Version: 1 Type: Tab 3 ratings
1 star 2 stars 3 stars 4 stars 5 stars
comments

Suicide Messiah Tab

   
Tabbed by: Corvetteman
Email: bassless@aol.com
This is the coolest song on the BLS cd: Mafia
#----------------------------------PLEASE NOTE---------------------------------#
#This file is the author's own work and represents their interpretation of the-#
#song. You may only use this file for private study, scholarship, or research.-#
#------------------------------------------------------------------------------#

Suicide Messiah

tuning=drop d down a step

Eq 
|Gtrs. 1-5
|pickup: Humbucker/bridge
|gain: Gtrs.1-4:8
|gain: Gtr.5:3
|Eq: Gtrs.1-4: b/m/t=7/6/7
|Eq: Gtr.5 b/m/t=7/7/5


Lyrics

Verse 1
Walk through the flames that eat your flesh,
Drowned in the waters that you know best.
Step inside, I been waiting here for you.
On your knees, for you shall crawl.
Flyin' so high you'll never fall,
Step inside we've been waiting here for you.

Chorus
Bow down you chose your maker.
Never gives, he's always a taker.
The electric burns the fuel the fire,
It's just your suicide messiah
Oh, yeah. Oh, yeah.

Verse 2
Walk through the streets that know your name,
All that's pure is now insane,
Step inside I've been waiting here for you.
Another trip, another line,
Life's hand of doom, your feeling fine.
Step inside, we've been waiting here for you.


Intro

76 bpm

Gtr. 1 (dist.)                   
D|--------------|--------------------------------------|--------------------------|
A|--------------|--------------------------------------|--------------------------|
F|--------------|--------------------------------------|--------------------------|
C|--------------|-0====================================|==========================|
G|--------------|-0====================================|==========================|
C|-3b6=======r3-|-0====================================|==========================|
 |bass for gtr.  								  |
D|--------------|--------------------------------------|--------------------------|
A|--------------|--------------------------------------|--------------------------|
F|--------------|--------------------------------------|--------------------------|
C|--------------|--------------------------------------|--------------------------|
G|--------------|-3h5-5-5-5-5-5-5--5/-10p8----10p8-----|-3h5-5-5-5-5-5-5--5-3---5-|
C|--------------|--------------------------12------12\-|--------------------3---5-|

D|--------------------------------------|--------------------------|
A|--------------------------------------|--------------------------|
F|--------------------------------------|--------------------------|
C|======================================|====================------|
G|======================================|====================------|
C|======================================|====================3b5=r3|
 |
D|--------------------------------------|--------------------------|
A|--------------------------------------|--------------------------|
F|--------------------------------------|--------------------------|
C|--------------------------------------|--------------------------|
G|-3h5-5-5-5-5-5-5--5/-10p8----10p8-----|-3h5-5-5-5-5-5-5--5-3---5-|
C|--------------------------12------12\-|--------------------3---5-|

D|--------------------------------------|--------------------------|
A|--------------------------------------|--------------------------|
F|--------------------------------------|--------------------------|
C|-0====================================|==========================|
G|-0====================================|==========================|
C|-0====================================|==========================|
 |
D|--------------------------------------|--------------------------|
A|--------------------------------------|--------------------------|
F|--------------------------------------|--------------------------|
C|--------------------------------------|--------------------------|
G|-3h5-5-5-5-5-5-5--5/-10p8----10p8-----|-3h5-5-5-5-5-5-5--5-3---5-|
C|--------------------------12------12\-|--------------------3---5-|

D|--------------------------------------|--------------------------|
A|--------------------------------------|--------------------------|
F|--------------------------------------|--------------------------|
C|======================================|====================------|
G|======================================|====================------|
C|======================================|====================3b5=r3|
 |
D|--------------------------------------|--------------------------|
A|--------------------------------------|--------------------------|
F|--------------------------------------|--------------------------|
C|--------------------------------------|--------------------------|
G|-3h5-5-5-5-5-5-5--5/-10p8----10p8-----|-3h5-5-5-5-5-5-5--5-3---5-|
C|--------------------------12------12\-|--------------------3---5-|

Riff A                End of Riff A
      pm-|  |-------|   pm| |-----|
D|---------------------------------|--------|--------|--------|
A|---------------------------------|--------|--------|--------|
F|---------------------------------|--------|--------|--------|
C|---------3---------------3-------|-Riff A-|-Riff A-|-Riff A-|
G|-3h5-----3---------3h5---3-------|--------|--------|--------|
C|-0---0-0---0-0-0-0-0---0---0-0-0-|--------|--------|--------|
 |filler gtrs. hold notes till*     gtr2      gtr3    gtr4   *|
D|---------------------------------|--------|--------|-20~~~~~|
A|-10~~~~~~~~~~~~~~~~~~~~~~~~~~~~~~|~~~~~~~~|-12~~~~~|--------|
F|---------------------------------|--------|--------|--------|
C|---------------------------------|--------|--------|--------|
G|---------------------------------|--------|--------|--------|
C|---------------------------------|--------|--------|--------|

Verse 1
Gtr. 1 plays Riff A 8 times & gtrs.2-4 tacet

Chorus            pm-----|  pm----|        pm----|    pm---|      pm
D|-------|------|------------------------|--------------------------|
A|-------|------|------------------------|--------------------------|
F|-------|------|------------------------|--------------------------|
C|-3=====|-5====|---------3--------3---5-|---------3--------3---5---|
G|-3=====|-5====|-3-5-----3--------3---5-|-3-5-----3--3-5---3---5---|
C|-3=====|-5====|-0-0-0-0-3--0-0-0-3---5-|-0-0-0-0-3--0-0-0-3---5-0-|
                 Rhy. fig 1      end of Rhy. Fig 1
                          pm---------------|
D|-------|------||------|------------------||
A|-------|------||------|------------------||
F|-------|------||------|------------------||x3
C|-3=====|-5=\--||-0====|------------------||
G|-3=====|-5=\--||-0====|-5555555555555555-||
C|-3=====|-5=\--||-0====|-5555555555555555-||

D|------|------|
A|------|------|
F|------|------|
C|-3====|-5=\--|
G|-3====|-5=\--|
C|-3====|-5=\--|

Riff A 4 times with the fill gtrs. 2-4
note: I dont do it but you can add a pm.ed c to the hammer as such:
     pm
C|-----
G|-3h5-
C|-0-0-

Verse 2
riff a with extra pm.ed c 8 times

Chorus            pm-----|  pm----|        pm----|    pm---|      pm
D|-------|------|------------------------|--------------------------|
A|-------|------|------------------------|--------------------------|
F|-------|------|------------------------|--------------------------|
C|-3=====|-5====|---------3--------3---5-|---------3--------3---5---|
G|-3=====|-5====|-3-5-----3--------3---5-|-3-5-----3--3-5---3---5---|
C|-3=====|-5====|-0-0-0-0-3--0-0-0-3---5-|-0-0-0-0-3--0-0-0-3---5-0-|
                  
D|-------|------|--------|--------|--------|
A|-------|------|--------|--------|--------|
F|-------|------|--------|--------|--------|
C|-3=====|-5=\--|-riff a-|-riff a-|-riff a-|
G|-3=====|-5=\--|--------|--------|--------|
C|-3=====|-5=\--|--------|--------|--------|

Gtr.1
D|--------------------------|
A|--------------------------|
F|--------------------------|
C|-riff a-------------------|
G|--------------------------|
C|--------------------------|
 |Gtr.2
D|--------------------------|
A|--------------------------|
F|----------------------000-|
C|----/15------/13\8/14-----|
G|----/15-19\9--------------|
C|--------------------------|

Solo
Gtr.2
D|-17~~~~~~~~~~~17~17-17b19=------|------------------------------|
A|--------------------------17b18=|==17b18==17b18r17-15----15~~~\|
F|--------------------------------|---------------------16-------|
C|--------------------------------|------------------------------|
G|--------------------------------|------------------------------|
C|--------------------------------|------------------------------|
 |Gtr.1 Rhy. fig. 1                             end of rhy.fig. 2|
D|--------------------------------|------------------------------|
A|--------------------------------|------------------------------|
F|--------------------------------|------------------------------|
C|-4==============================|-3==========------------------|
G|-2==============================|-1==========/19\\\\\\\\\\\\\\\|
C|--------------------------------|------------------------------|
[ Tab from: http://www.guitartabs.cc/tabs/b/black_label_society/suicide_messiah_tab.html ]
D|-------10------------10-----------10------------10-----|15p13-10-13p10--13--10-----------------------------|
A|---------13p10-13b15~--13p10--------13p10-13b15~--13p10|--------------13--13--13p10--13--10----------------|
F|-12b14~---------------------12b14~---------------------|---------------------------13--13--12b14r12p10--10~|
C|-------------------------------------------------------|----------------------------------------------12---|
G|-------------------------------------------------------|---------------------------------------------------|
C|-------------------------------------------------------|---------------------------------------------------|
 |
D|-------------------------------------------------------|---------------------------------------------------|
A|-------------------------------------------------------|---------------------------------------------------|
F|-------------------------------------------------------|---------------------------------------------------|
C|-riff a------------------------------------------------|-riff a--------------------------------------------|
G|-------------------------------------------------------|---------------------------------------------------|
C|-------------------------------------------------------|---------------------------------------------------|

D|-17~~~~~~~~~~~~~~~~-17b19==------|-----------------------------------|
A|---------------------------17b18=|===17b18===17b18r17-15--15~~~~\/13-|
F|---------------------------------|----------------------16-----------|
C|---------------------------------|-----------------------------------|
G|---------------------------------|-----------------------------------|
C|---------------------------------|-----------------------------------|
 |
D|---------------------------------|-----------------------------------|
A|---------------------------------|-----------------------------------|
F|---------------------------------|-----------------------------------|
C|-4===============================|-3=============/19\\\\\\\\\\\\\\\\\|
G|-2===============================|-1=============--------------------|
C|---------------------------------|-----------------------------------|

Gtr.2
D|------------------------------------------------------------------------------------------------------|
A|-10h13p10--10h13p10--10h13/15h18p15--15h18p15--15\10h13p10--10h13p10--10h13/15h18p15--15h18p15--15h18-|
F|---------12--------12--------------17--------17-----------12--------12--------------17--------17------|
C|------------------------------------------------------------------------------------------------------|
G|------------------------------------------------------------------------------------------------------|
C|------------------------------------------------------------------------------------------------------|
Gtr.1 with riff a twice

D|----------------------------------------------/20=-=-=-=-=-20b22~~~~~~~~|
A|-15h20p15--15h20p15--15h18p15-10h13p10--10h12---------------------------|
F|---------17--------17-----------------12--------------------------------|
C|------------------------------------------------------------------------|
G|------------------------------------------------------------------------|
C|------------------------------------------------------------------------|

Gtr.2
D|---------------|-----------|-----------|-15b17-15b17r15-15b17r15-15b17~r15-|
A|-repeat as-----|-repeat as-|-repeat as-|-------15b16r15-15b16r15-15b16~r15-|
F|-fast as poss.-|-before----|-before----|-----------------------------------|
C|-t15p0h3p0-----|-t17p0h5p0-|-t20p0h8p0-|-----------------------------------|
G|---------------|-----------|-----------|-----------------------------------|
C|---------------|-----------|-----------|-----------------------------------|
 |
D|---------------|-----------|-----------|-----------------------------------|
A|---------------|-----------|-----------|-----------------------------------|
F|---------------|-----------|-----------|-----------------------------------|
C|-3=============|-5=========|-8=========|-10=======10==\---10==\----10==\---|
G|-3=============|-5=========|-8=========|-10=======10==\---10==\----10==\---|
C|-3=============|-5=========|-8=========|-10=======10==\---10==\----10==\---|

D|-20b22r20-(20)22~~~~~~~~~|~~~~~~~~~~~~~20b22-\-|
A|----------(20)22~~~~~~~~~|~~~~~~~~~~~~~20b22-\-|
F|-------------------------|---------------------|
C|-------------------------|---------------------|
G|-------------------------|---------------------|
C|-------------------------|---------------------|
Gtr.1 with Rhy. fig 1 3 times

Gtr. 1
D|---------|---------|---------|----------|
A|---------|---------|---------|----------|
F|---------|---------|---------|----------|
C|-3=======|-5=======|-3=======|-5-\------|
G|-3=======|-5=======|-3=======|-5-\------|
C|-3=======|-5=======|-3=======|-5-\------|

Interlude
Gtr.5 (clean)
  Riff C                                  End of Riff C
D|-------------------------|--------------------------|
A|-------------------------|--------------------------|
F|-------------------------|--------------------------|
C|-------------------------|---3---3---3---7----7h8p7-|
G|---5---5---5--7----7h8p7-|-0---0---0---0----0-------|

D|---------------------------|--------------------------|
A|---------------------------|--------------------------|
F|---------------------------|--------------------------|
C|---------------------------|--------------------------|
G|---5---5---5---7-----7h8p7-|---3---3---3---5----7h8p7-|
C|-0---0---0---0---0-0-------|-0---0---0---0----0-------|

Gtr.5 with riff C

Gtr.5
D|---------------------------|
A|---------------------------|
F|---------------------------|
C|---------------------------|
G|---5---5---5---5-----7h8p7-|
C|-0---0---0---0---0-0-------|

Gtr.1
D|--------------|
A|--------------|
F|--------------|
C|--------------|
G|--------------|
C|-------(3)5r3-|
 |Gtr.5
D|--------------|
A|--------------|
F|-last bar-----|
C|-of Riff C----|
G|--------------|
C|--------------|
Outro
Gtr.5 with Riff C 7 times
Gtr.1
                    pm------|
D||--------|----------------||
A||--------|----------------||
F||--------|----------------||until end
C||-0======|-5======--------||
G||-0======|-3======0-0-0-0-||
C||-0======|--------0-0-0-0-||
 |Gtr. 2
D|--------|----------------|-------------|----------|-------------------|
A|--------|----------------|-------------|----------|-13b15r12-13b15~~~\|
F|--------|----------------|-------------|----------|-------------------|
C|--------|----------------|-------------|------/12-|-------------------|
G|--------|----------------|-------------|---19\----|-------------------|
C|--------|----------------|-------------|----------|-------------------|

Gtr. 2
D|---------10h13h16-13h16-10h13p10-----------10h13h16-13h16-10h13p10--------------10h13h16-13h16p13-10h13p|
A|-10h13h16-----------------------13p10h13h16-----------------------13-13p10h13h16------------------------|
F|--------------------------------------------------------------------------------------------------------|
C|--------------------------------------------------------------------------------------------------------|
G|--------------------------------------------------------------------------------------------------------|
C|--------------------------------------------------------------------------------------------------------|

D|p10--10h13p10-----------------------------------------------------|-10------------------------------------|
A|---16--------16-13h16p13p10-13p10-10-10-13p10-10-10-10-10------12-|---13p10-----------------------------12|
F|---------------------------------------------------------12b14~~~~|~-------13-12b14r12p10--12--10-11b12~--|
C|------------------------------------------------------------------|----------------------12--12-----------|
G|------------------------------------------------------------------|---------------------------------------|
C|------------------------------------------------------------------|---------------------------------------|
                                 Begin Fade
D|-----------|------------------|---------12---------13-14-----|-15----16----17----18----19----------|
A|=-12~~~~~~~|~~13b15r13b15~~~~~|~~~~~~~10--11-----12-----13---|---14----15----16----17----18--------|
F|-----------|------------------|-------------10-11---------12-|-----13----14----15----16----17-19~~~|
C|-----------|------------------|------------------------------|-------------------------------------|
G|-----------|------------------|------------------------------|-------------------------------------|
C|-----------|------------------|------------------------------|-------------------------------------|

D|----------------10-----13-10-----13-|
A|-13b15~~~~~~~~~---13-10-----13-10---|
F|------------------------------------|
C|------------------------------------|
G|------------------------------------|
C|------------------------------------|
                                                                                  Fade Out
D|-10-----13-10-----12-10-----13-10------------------------------13-10--------------------|
A|---13-10-----13-10-----13-10-----13-10-----13-10-----13-10----------13-10-----13-10-----|
F|--------------------------------------12-10-----12-10-----12-10----------12-10-----12-10|
C|----------------------------------------------------------------------------------------|
G|----------------------------------------------------------------------------------------|
C|----------------------------------------------------------------------------------------|

Note:
These measures and bars represnt actual timing and actual bars and measures, not phrases

guide to my tabs
h = hammer on                    3h5
p = pull off                     3p5
b = bend to match following note 3b5
r = release bend                 3b5r3
(#)# = pre-bend                 (3)5
t = tap note                     t5
\ = slide down                   5\3
/ = slide up                     3/5
wb = whammy bar bending          5wb3 or 3wb5
X = muted string                 X
X\ = pick slide                  X\
H = harmonic                     H5
HH = harp harmonic               HH(3)8
TH = tap harmonic                TH(3)8
PH = pinch harmonic              PH3
== = hold note without vibrato   3==
~~ = vibrato                     3~~
-=-= = tremolo pick              3-=-=-=
Comments