Black Label Society - Stoned And Drunk Chords & Tabs

 

Stoned And Drunk Chords & Tabs

Black Label Society Chords & Tabs

Version: 1 Type: Tab 0 ratings
1 star 2 stars 3 stars 4 stars 5 stars
comments

Stoned And Drunk Tab

   
--------------------------------------------------------------------------------
            Stoned And Drunk - Zakk Wylde's Black Label Society
--------------------------------------------------------------------------------

Artist: Zakk Wylde's Black Label Society
Song: Stoned And Drunk (Track 1)
Albulm: The Blessed Hell Ride
Tabbed by: Zero Is Great Man
Tunning: EADGBe

Intro + Riff 1:
e|-------------------------------------|
B|-------------------------------------|
G|----------------------4-4-4-4\-3-3-3-|
D|-4-4-/-6-6-6-6-6-6--6----------------|
A|-4-4-/-6-6-6-6-6-6-------------------|
E|-2-2-/-4-4-4-4-4-4-------------------|
[ Tab from: http://www.guitartabs.cc/tabs/b/black_label_society/stoned_and_drunk_tab.html ]
Verse:
e|-----------------------------|
B|-----------------------------|
G|-----------------------------|
D|-6-/-8-8-8-8-8--x-x-x--x-x-x-|
A|-6-/-8-8-8-8-8--x-x-x--x-x-x-|
E|-4-/-6-6-6-6-6--x-x-x--x-x-x-|

Verse Part 2:
e|-----------------|
B|-----------------|
G|-----------------|
D|-----------------|
A|-9-8-9-8-9-8-9-8-|
E|-7-6-7-6-7-6-7-6-|

Chorus: "Stoned and Drunk..."
e|------------------------------------|
B|------------------------------------|
G|------------------------------------|
D|------------------------------------|
A|-4-x-4-x-4-x-4-x-4-x-4--2-2-2-2-2-2-|
E|-2-x-2-x-2-x-2-x-2-x-2--0-0-0-0-0-0-|

Solo: That's why they call them solo's cause you're on your own



| ~ - Vibreto
| b - Bend Note
|() - Bend to fret pitch
| s - Slap
| t - Tap
| x - Muted Note
| . - Palm Mute
| + - Harmonics
| / - Slide up
| \ - Slide down
| p - Pull off
| h - Hammer on

================================================================================
Comments