Black Label Society - Stillborn Chords & Tabs

 

Stillborn Chords & Tabs

Black Label Society Chords & Tabs

Version: 3 Type: Tab 0 ratings
1 star 2 stars 3 stars 4 stars 5 stars
comments

Stillborn Tab

   
-------------------------------------------------------------------------------
		   Still Born - Zakk Wylde's Black Label Society
-------------------------------------------------------------------------------

Artist: Zakk Wylde's Black Label Society
Song: Still Born
Albulm: The Blessed Hell Ride
Tabbed by: Zero is Great man
Tuning: Standard Right Tunning: EADGBe

Main Riff: (Intro/Verse/Fill/Outro)[w/Distortion + wah]
e|------------x------------|
B|------------x------------|
G|------------x------------|
D|-3-3-3-3-3--x--3-3-3-3-3-|
A|-x-x-x-x-x--x--x-x-x-x-x-|
E|-1-1-1-1-1--x--1-1-1-1-1-|

Chorus: "The feelings I once felt are now dead and gone...."
e|-------------------------|
B|-------------------------|
G|-8-8-8-8-8-8-8-8-8-8-8-8-|
D|-8-8-8-8-8-8-8-8-8-8-8-8-|(x2)
A|-6-6-6-6-6-6-6-6-6-6-6-6-|
E|-6-6-6-6-6-6-6-6-6-6-6-6-|
   . . .   . . .   . . .

(Repeat Main Riff)
[ Tab from: http://www.guitartabs.cc/tabs/b/black_label_society/stillborn_tab_ver_3.html ]
Chorus Part 2: "I've waited here for you, So Looooonnnnnggggg....." 
e|---------------------------------------------|
B|---------------------------------------------|
G|---x-x-x------------------6------------------|
D|-3-x-x-x------6-x-x-x-----6------------------|
A|-3-x-x-x------6-x-x-x-2-3-4--1-2h-1p-1-2h-1p-|
E|-1-x-x-x--2-3-4-x-x-x------------------------|

Pick Scrape: (After he says, "I've waited here for you 6x)
e|---------------------------------------------------------------------------|
B|---------------------------------------------------------------------------|
G|---------------------------------------------------------------------------|
D|---------------------------------------------------------------------------|
A|---------------------------------------------------------------------------|
E|-/////////////////////////////////////////////////////////////////////////-|


| /  slide up
| \  slide down
| h  hammer-on
| p  pull-off
| ~  vibrato
| +  harmonic
| x  Mute note
===============================================================================
Comments