Black Label Society - Speedball Chords & Tabs

 

Speedball Chords & Tabs

Black Label Society Chords & Tabs

Version: 1 Type: Tab 0 ratings
1 star 2 stars 3 stars 4 stars 5 stars
comments

Speedball Tab

   
Artist: Black Label Society
Title: Speedball
Album: 1919 Eternal

www.BlackLabelSociety.net


Gtr I (C# G# C# F# A# D#) - 

 4/4
  Gtr I
  |----3----| |----3----| |----3----| |----3----|
  S S S S S S S S S S S S S S S S S S S S S S S S
|-1-3-5-1-3-5-------------------------------------||
|-------------2-3-5-2-3-5-------------------------||
|-------------------------2-3-5-2-3-5-------------||
|-------------------------------------2-3-5-2-3-5-||
|-------------------------------------------------||
|-------------------------------------------------||


 5/4
  |----3----|
  S S S S S S H  +H    H     +H
|---------------------------------|-|
|---------------------------------|-|
|--------------------<12>--(<12>)-|-|
|--------------------<12>--(<12>)-|-|
|-4-5-7-4-5-7--------<12>--(<12>)-|-|
|-------------0--(0)-<12>--(<12>)-|-|


   4/4
     |------3-------|  |------3-------|  |------3-------|  |------3-------|
     S  S  S  S  S  S  S  S  S  S  S  S  S  S  S  S  S  S  S  S  S  S  S  S
||--------------------------------------------------------------------------|
||o-------------------------------------------------------------------------|
||-----10-13-14p13p10----10-13-14p13p10----10-13-14p13p10----10-13-14p13p10-|
||--12----------------12----------------12----------------12----------------|
||o-------------------------------------------------------------------------|
||--------------------------------------------------------------------------|


   |-----3------|
   S S  S  S  S S
|-----------------|
|-----------------|
|----9-12-13p12p9-|
|-11--------------|
|-----------------|
|-----------------|


   |-----3------|  |-----3------|  |-----3------|
   S S  S  S  S S  S S  S  S  S S  S S  S  S  S S
|-------------------------------------------------|
|-------------------------------------------------|
|----9-12-13p12p9----9-12-13p12p9----9-12-13p12p9-|
|-11--------------11--------------11--------------|
|-------------------------------------------------|
|-------------------------------------------------|


   |-----3------|  |-----3------|  |-----3------|  |-----3------|
   S S  S  S  S S  S S  S  S  S S  S S  S  S  S S  S S  S  S  S S
|-----------------------------------------------------------------|-|
|-----------------------------------------------------------------|-|
|----8-11-12p11p8----8-11-12p11p8----8-11-12p11p8----8-11-12p11p8-|-|
|-10--------------10--------------10--------------10--------------|-|
|-----------------------------------------------------------------|-|
|-----------------------------------------------------------------|-|


  |----3----| |----3----| |----3----|
  S S S S S S S S S S S S S S S S S S Q       S E.
|-----------------------------------------||-!1-----||
|----------------------------------------o||-!3-----||
|-5-6-7-5-6-7-----------------------------||-!2-----||
|-------------5-6-7-3-4-5-----------------||-!0-----||
|-------------------------3-4-5-3-4-5----o||-!0-----||
|-------------------------------------0---||-!0-0---||


  |----3----| |----3----| |----3----| |----3----|
  S S S S S S S S S S S S S S S S S S S S S S S S
|-------------------------------------------------|-|
|-------------------------------------------------|-|
|-3p2p0-2p0---0---0-------3p2p0-2p0---0---0-------|-|
|-----------3---3---3p2p0-----------3---3---3p2p0-|-|
|-1-----------------------1-----------------------|-|
|-------------------------------------------------|-|


  |----3----| |----3----| |----3----| |-3-|
  S S S S S S S S S S S S S S S S S S S S S S S
|-----------------------------------------------|
|-----------------------------------------------|
|-------------3-5-5-3---------------------------|
|-------3-5-7---------7-5-3---5-3---------------|
|-3-5-7---------------------7-----7-5-3-2-5-3-1-|
|-----------------------------------------------|


  |----3----| |----3----| |----3----| |----3----|
  S S S S S S S S S S S S S S S S S S S S S S S S
|-------------------------------------------------|-|
|-------------------------------------------------|-|
|-3p2p0-2p0---0---0-------3p2p0-2p0---0---0-------|-|
|-----------3---3---3p2p0-----------3---3---3p2p0-|-|
|-1-----------------------1-----------------------|-|
|-------------------------------------------------|-|


  PM---------------------------------------------|
  |----3----| |----3-----| |----3----| |----3----|
  S S S S S S S S S S  S S S S S S S S S S S S S S
|--------------------------------------------------|
|--------------------------------------------------|
|--------------------------------------------------|
|-----0-----0-----0------0-----0-----0-----0-----0-|
|-0h5---0h7---0h8---0h10---0h8---0h7---0h5---0h4---|
|--------------------------------------------------|


  |----3----| |----3----| |----3----| |----3----|
  S S S S S S S S S S S S S S S S S S S S S S S S
|-------------------------------------------------|-|
|-------------------------------------------------|-|
|-3p2p0-2p0---0---0-------3p2p0-2p0---0---0-------|-|
|-----------3---3---3p2p0-----------3---3---3p2p0-|-|
|-1-----------------------1-----------------------|-|
|-------------------------------------------------|-|

[ Tab from: http://www.guitartabs.cc/tabs/b/black_label_society/speedball_tab.html ]
  |----3----| |----3----| |----3----| |-3-|
  S S S S S S S S S S S S S S S S S S S S S S S
|-----------------------------------------------|
|-----------------------------------------------|
|-------------3-5-5-3---------------------------|
|-------3-5-7---------7-5-3---5-3---------------|
|-3-5-7---------------------7-----7-5-3-2-5-3-1-|
|-----------------------------------------------|


  |----3----| |----3----| |----3----| |----3----|
  S S S S S S S S S S S S S S S S S S S S S S S S
|-------------------------------------------------|-|
|-------------------------------------------------|-|
|-3p2p0-2p0---0---0-------3p2p0-2p0---0---0-------|-|
|-----------3---3---3p2p0-----------3---3---3p2p0-|-|
|-1-----------------------1-----------------------|-|
|-------------------------------------------------|-|


  |----3----| |----3----| |----3----| |----3----|
  S S S S S S S S S S S S S S S S S S S S S S S S
|-------------------------------------------------|
|-------------------------------------------------|
|-2p0-2p0---0---0---0-----2p0-2p0---0---0---0-----|
|---------3---3---3---3p0---------3---3---3---3p0-|
|-2-----------------------2-----------------------|
|-------------------------------------------------|


  |----3----| |----3----| |----3----| |--3--|
  S S S S S S S S S S S S S S S S S S S S S E S
|-----------------------------------------------|-|
|-----------------------------------------------|-|
|-3p2p0-2p0---0---0-------3p2p0-2p0---0---0-----|-|
|-----------3---3---3p2p0-----------3---3---0---|-|
|-0-----------------------0-----------------0-7-|-|
|-----------------------------------------------|-|


 4/4
  |-3-|                 |-3-|
  S S S S S S S S S S S S S S S S S S S S S S
|---------------------------------------------|
|---------------------------------------------|
|-7p6p0-6p0---0---0-----7p6p0-6p0---0---0-----|
|-----------7---7---5p0-----------7---7---5p0-|
|-7---------------------7---------------------|
|---------------------------------------------|


  |-3-|                   |-3-|
  S S S S S S S S S S S S S S S S S S S S S S S
|-----------------------------------------------|-|
|-----------------------------------------------|-|
|-7p5p0-5p0---0---0-------7p5p0-5p0---0---0-----|-|
|-----------7---7---7-5-0-----------7---7---5p0-|-|
|-6-----------------------6---------------------|-|
|-----------------------------------------------|-|


 5/8                         4/4
    |----3----| |----3----|   |----3----| |----3----| |----3----| |----3----|
  E S S S S S S S S S S S S   S S S S S S S S S S S S S S S S S S S S S S S S
|---------------------------|-------------------------------------1-3-5-1-3-5-|
|---------------------------|-------------------------2-3-5-2-3-5-------------|
|---------------------------|-------------2-3-5-2-3-5-------------------------|
|-2-------------------------|-2-3-5-2-3-5-------------------------------------|
|-0-------------4-5-7-4-5-7-|-------------------------------------------------|
|---5-7-8-5-7-6-------------|-------------------------------------------------|


  |----3----| |----3----| |----3----| |----3----|
  S S S S S S S S S S S S S S S S S S S S S S S S
|-------------------------------------------------|
|-2-3-5-2-3-5-------------------------------------|
|-------------2-3-5-2-3-5-------------------------|
|-------------------------2-3-5-2-3-5-------------|
|-------------------------------------4-5-7-4-5-7-|
|-------------------------------------------------|


  e E E   E     +Q      +E.   S    S  S  S  S   S  S  E  E  S  S  S  S  E   W
|----------------------------10S|=15-14-----------------------------------|---|
|-------------------------------|-------15-13\----------------------------|---|
|-------<12>--(<12>)--(<12>)----|--------------11-12-12-11-12-------------|---|
|-------<12>--(<12>)--(<12>)----|-----------------------------12S10-------|---|
|-0-----<12>--(<12>)--(<12>)----|-----------------------------------12S10-|-9-|
|-0-----<12>--(<12>)--(<12>)----|-----------------------------------------|-0-|


Duration Legend
---------------
W - whole; H - half; Q - quarter; E - 8th; S - 16th; T - 32nd; X - 64th; a - acciaccatura
+ - note tied to previous; . - note dotted; .. - note double dotted
Uncapitalized letters represent notes that are staccato (1/2 duration)
Irregular groupings are notated above the duration line
Duration letters will always appear directly above the note/fret number it represents the
duration for.  Duration letters with no fret number below them represent rests.  Multi-
bar rests are notated in the form Wxn, where n is the number of bars to rest for.  Low
melody durations appear below the staff

Tablature Legend
----------------
 h   - hammer-on
 p   - pull-off
 b   - bend
 pb  - pre-bend
 r   - bend release (if no number after the r, then release immediately)
 /\  - slide into or out of (from/to "nowhere")
 s   - legato slide
 S   - shift slide
  - natural harmonic
[n]  - artificial harmonic
n(n) - tapped harmonic
 ~   - vibrato
 tr  - trill
 T   - tap
 TP  - trem. picking
 PM  - palm muting
\n/  - tremolo bar dip; n = amount to dip
 \n  - tremolo bar down
 n/  - tremolo bar up
/n\  - tremolo bar inverted dip
 =   - hold bend; also acts as connecting device for hammers/pulls
 <>  - volume swell (louder/softer)
 x   - on rhythm slash represents muted slash
 o   - on rhythm slash represents single note slash

Misc Legend
-----------
 |  - bar
||  - double bar
||o - repeat start
o|| - repeat end
*|  - double bar (ending)
 :  - bar (freetime)
 $  - Segno
 &  - Coda
Tempo markers -  = BPM(8/16=s8/s16), where s8 = swing 8ths,
s16 = swing 16ths
Comments