Black Label Society - Sold My Soul Chords & Tabs

 

Sold My Soul Chords & Tabs

Black Label Society Chords & Tabs

Version: 1 Type: Tab 0 ratings
1 star 2 stars 3 stars 4 stars 5 stars
comments

Sold My Soul Tab

   
         Title : Sold My Soul
        Artist : Zakk Wylde
         Album : Book Of Shadows
Transcribed by : Dennis Franke
  Converted by : Matt Van Stone
          From : www.BlackLabelSociety.net


Legend
------

 h  = hammer-on
 p  = pull-off
 b  = bend
 r  = bend release
 /  = slide up/down
<5> = natural harmonic
[5] = artifical harmonic
 ~  = vibrato
 tr = trill

Chord Diagrams (low to high)
----- --------

Cmaj7	0 3 2 0 0 0
Emin/add 9	0 2 4 0 0 0
G maj 7	3 2 4 0 0 0


 intro:     Emin/add 9          Asus2-A Asus2-A    4x
acoustic 12-string G maj 7                          couplet:

E-||------------------|-----------------------------||-----------------
B-||*-----------------|----------------0-0-----0-0-*||-----------------
G-||--------0-----0---|-------0----4p6-6-6-4p6-6-6--||-----0--0-0------
D-||------4---------4-|-----7---7--7---7-7-7---7-7--||-----4--4-4------
A-||*---2-------2-----|-2/5------------------------*||-----2--2-2------
E-||--0-------3-------|-----------------------------||-0-0-0--0-0--3-3-
                                                         without you woman    by my
E|--------|-------------------------------|------------------------|---
B|--------|-------------------0-0-----0-0-|------------------------|---
G|-0--0-0-|-------0--0-0--4p6-6-6-4p6-6-6-|-----0--0-0------0--0-0-|---
D|-4--4-4-|-------7--7-7--7---7-7-7---7-7-|-----4--4-4------4--4-4-|---
A|-2--2-2-|-2/5-5-5--5-5------------------|-----2--2-2------2--2-2-|-2/
E|-3--3-3-|-------------------------------|-0-0-0--0-0--3-3-3--3-3-|---
                side                    I am     contemplating  suicide
E|-----------------------------|------------------------|--------------
B|-----------------0-0-----0-0-|------------------------|--------------
G|-----0--0-0--4p6-6-6-4p6-6-6-|-----0--0-0------0--0-0-|-------0--0-0-
D|-----7--7-7--7---7-7-7---7-7-|-----4--4-4------4--4-4-|-------7--7-7-
A|-5-5-5--5-5------------------|-----2--2-2------2--2-2-|-2/5-5-5--5-5-
E|-----------------------------|-0-0-0--0-0--3-3-3--3-3-|--------------
   thorn from all my pride       a man tells me, son that ain't the way
E|------------------|------------------------|--------------------------
B|------0-0-----0-0-|------------------------|--------------------0-0---
G|--4p6-6-6-4p6-6-6-|-----0--0-0------0--0-0-|-------0--0-0---4p6-6-6-4p
D|--7---7-7-7---7-7-|-----4--4-4------4--4-4-|-------7--7-7---7---7-7-7-
A|------------------|-----2--2-2------2--2-2-|-2/5-5-5--5-5-------------
E|------------------|-0-0-0--0-0--3-3-3--3-3-|--------------------------
                      gonna make a deal with  you child gonna        live another day

           Cmaj7                          4x  chorus:  Em       G
           bridge:     electric guitar/rotovibe acoustic guitar

E|-------|-0-------|---------|-0-----------||-||-------0--0-0-|---------
B|---0-0-|-0-------|---------|-0----------*||-||*------0--0-0-|---------
G|-6-6-6-|-0-------|---------|-0---0---0---||-||-------0--0-0-|---------
D|---7-7-|-2-------|---------|-2-----------||-||-------2--2-2-|-------0-
A|-------|-3-------|-3-2-----|-2----------*||-||*------2--2-2-|-------2-
E|-------|---------|---------|-0-3---2-----||-||--0-0--0--0-0-|-3-3-3-3-
       just sign right here son and everything will be allright

          A                     4x  from intro: bridge:  bridge:
                                         guitar 1

E|-3--3-|------0--0-0-|----------||-----||--------------------|--------
B|-3--3-|------2--2-2-|---------*||-----||*-------------------|--------
G|-0--0-|------2--2-2-|---0---0--||-----||--------------------|--------
D|-0--0-|------2--2-2-|----------||-----||--------------------|--------
A|-2--2-|-0-0--0--0-0-|---------*||-----||*-------------------|--------
E|-3--3-|-------------|-3---2----||-----||--5--5p3-5---b2--r3-|-5p3-5--
                      aint' -nothing -I wouldn't do

             E5  see readme:                         2x
                 guitar 2 + rotovibe
[ Tab from: http://www.guitartabs.cc/tabs/b/black_label_society/sold_my_soul_tab.html ]
E|---------|---|--------------------------------------||---------------
B|---------|---|--------------------12/10--10/8--8/7-*||---------------
G|---------|---|-7/9--9/11---11/12--------------------||---------------
D|---------|-2-|---------------------9/-7---7/5--5/3--||---------------
A|---------|-2-|-5/7--7/-9----9/11-------------------*||---------------
E|--b2--r3-|-0-|--------------------------------------||-5p3-5---b2--r-


   A5     bridge 2: G maj 7            Asus2-A Asus2-A 2x  Solo:
      acoustic 12-string

E|----||------------------|-----------------------------||-|------------
B|----||*-----------------|----------------0-0-----0-0-*||-|------------
G|----||--------0-----0---|-------0----4p6-6-6-4p6-6-6--||-|------------
D|-7--||------4---------4-|-----7---7--7---7-7-7---7-7--||-|----------5-
A|-7--||*---2-------2-----|-2/5------------------------*||-|-2p3--5/7---
E|-5--||--0-------3-------|-----------------------------||-|------------
     all for you

            A.h.


E|---------------------------------------|---------------------|-------
B|---------------------------------------|---------------------|-------
G|------7-9--2b4--r-0--------------------|---------------------|-------
D|--7/9----------------2p0-2--0p2-0------|-4b5--4b5--4b5--r----|-------
A|----------------------------------2-3--|-----------------7-5-|-------
E|---------------------------------------|---------------------|-5-6-7-


                                                                     Wah


E---------------------------|--------------------10-10--------------|---
B---------------------------|--------7-8-10b12----------r10--8b9----|---
G---------------------------|-9~---9------------------------------9-|-4p
D---------------------------|---------------------------------------|---
A-----------5-6-7-7-7-8-9-9-|---------------------------------------|---
E-7-5-6-7-7-----------------|---------------------------------------|---

E|-----------------------------------------------------------------------
B|-----------------------------------------------------------------------
G|-5-4-5-4-5-4-5-4--5p7-5-7-5-7-5-7-5--7p9-7-9-7-9-7-9-7--9p11-9-11-9-11-
D|-----------------------------------------------------------------------
A|-----------------------------------------------------------------------
E|-----------------------------------------------------------------------

E|------------------------------------------------------------------------
B|---------7p8-7-8-7--8p10-8-10-8--10p12-10-12-10--12p13-12-13-12---15b17-
G|-9-11-9-----------------------------------------------------------------
D|------------------------------------------------------------------------
A|------------------------------------------------------------------------
E|------------------------------------------------------------------------

E-|--14b15--14-14--r-14--r-14--r-12--------|-------------------------------
B-|---------------------------------15b17--|-------12-15-------12-15-------
G-|----------------------------------------|-14b16-------14b16-------14b16-
D-|----------------------------------------|-------------------------------
A-|----------------------------------------|-------------------------------
E-|----------------------------------------|-------------------------------

E|--------------------------------15-12----------------------------------
B|-12-15-------12-15-------12-15--------15-12-------15-12----------------
G|-------14b16-------14b16--------------------14-12-------14-12-------14-
D|--------------------------------------------------------------14-12----
A|-----------------------------------------------------------------------
E|-----------------------------------------------------------------------

E|----------------------------|-------------------------------15-15-------
B|--------------14b16--r12----|-12--14-12-14b16--r-12--15b17--------14b16-
G|-12-----------14b16--r12----|-12--14-12-14b16--r-12---------------14b16-
D|----14-12----------------14-|-------------------------------------------
A|----------14----------------|-------------------------------------------
E|----------------------------|-------------------------------------------                                           chorus:

E|--------------|-2--0p2-0------------------|--
B|--r-----------|----------4-0--------------|--
G|--r-12b13-----|--------------2------------|--
D|-----------14~|----------------4-2-1------|--
A|--------------|----------------------2~---|--
E|--------------|---------------------------|--
Comments