Black Label Society - House Of Doom Chords & Tabs

 

House Of Doom Chords & Tabs

Black Label Society Chords & Tabs

Version: 3 Type: Tab 0 ratings
1 star 2 stars 3 stars 4 stars 5 stars
comments

House Of Doom Tab

   
B7sus4
x 2 3 2 0 0B5
x 2 4 4 x xF#m
2 4 4 2 2 2E
0 2 2 1 0 0Esus4
0 2 2 2 0 0D
x x 0 2 3 2A
x 0 2 2 2 xF#sus4
2 4 4 4 2 2Gtr I (Eb Ab Db Gb Bb Eb) - 'Zakk Wylde - Rhythm Steel 6 & 12 String Acoustic'
Gtr II (Eb Ab Db Gb Bb Eb) - 'Zakk Wylde - Rhythm Clean Electric'
Gtr III (Eb Ab Db Gb Bb Eb) - 'Zakk Wylde - Rhythm Electric w/dist'
Gtr IV (Eb Ab Db Gb Bb Eb) - 'Zakk Wylde - Lead Electric w/dist'


Intro
  Q=126
 4/4
  Gtr II
	  |-Rhy Fig 1                end Rhy Fig 1-|
      B7sus4
  E   W                   +W
      |                    |
      /                    /
  Gtr I
  E   E E E E +E  E E E   +E  E E E +E  E Q
|---|-------------------|--------------------|
|---|-------------------|--------------------|
|---|-2-----2-(2)-----2-|-(2)-----2-(2)------|
|---|---4---------4-----|-----4---------4----|
|-2-|-----2---------2---|-------2---------2--|
|---|-------------------|--------------------|
    |-Riff A                      end Riff A-|


w/Rhy Fig 1 + Riff A x3
  Gtr III
  W                    H         Q    E S S
|-------------------|-----------------------|
|-------------------|-----------------------|
|-------------------|-----------------------|
|-------------------|-------------------4-4-|
|-------------------|-------------------2-2-|
|-------------------|-----------------------|


  W                   +H.             E S S
|-------------------|-----------------------|
|-------------------|-----------------------|
|-------------------|-----------------------|
|-4-----------------|-(4)-------------4-2-2-|
|-2-----------------|-(2)-------------2-0-0-|
|-------------------|-----------------------|
|-Rhy Fig 2                   end Rhy Fig 2-|


  W                   +W
|-------------------|---------------------||
|-------------------|---------------------||
|-------------------|---------------------||
|-4-----------------|-(4)-----------------||
|-2-----------------|-(2)-----------------||
|-------------------|---------------------||


   Verse
    $
    Gtr I                            |-Rhy Fig 3
    B5                                  F#m
     Q  Q  E Q  E   +E  E E E +E E Q     Q  Q  E Q  E   +E  E E E +E E Q
     |  |  | |  |    |  | | |  | | |     |  |  | |  |    |  | | |  | | |
     /  /  / /  /    /  / / /  / / /     /  /  / /  /    /  / / /  / / /
    Gtr II
     W              +W                   W              +W
||--^0------------|-(0)---------------|-^2------------|-(2)----------------|
||o-^0------------|-(0)---------------|-^2------------|-(2)----------------|
||--^2------------|-(2)---------------|-^2------------|-(2)----------------|
||--^4------------|-(4)---------------|-^4------------|-(4)----------------|
||o-^2------------|-(2)---------------|-^4------------|-(4)----------------|
||----------------|-------------------|-^2------------|-(2)----------------|


                     end Rhy Fig 3-|
  E           Esus4       E
   Q  Q  E Q  E   +E  E E E +E E Q
   |  |  | |  |    |  | | |  | | |  |-w/Rhy Fig 1
   /  /  / /  /    /  / / /  / / /
                                    Gtr I
   W              +W                  E E E E +E  E E E   +E  E E E +E  E Q
|-^0------------|-(0)---------------|-------------------|-------------------
|-^0------------|-(0)---------------|-------------------|-------------------
|-^1------------|-(1)---------------|-2-----2-(2)-----2-|-(2)-----2-(2)-----
|-^2------------|-(2)---------------|---4---------4-----|-----4---------4---
|-^2------------|-(2)---------------|-----2---------2---|-------2---------2-
|-^0------------|-(0)---------------|-------------------|-------------------


   Chorus
    $$
    Gtr I
    D          A                      E          B5
    Q  Q  E Q  E   +E E E E +E E Q    Q  Q  E Q  E   +E  E E E +E  E Q
    |  |  | |  |    | | | |  | | |    |  |  | |  |    |  | | |  |  | |
    /  /  / /  /    / / / /  / / /    /  /  / /  /    /  / / /  /  / /
    Gtr III
                                                      ~~~       ~~~
    W               W                 W               Q.     E  Q.     E
||---------------|------------------|--------------|-----------------------|
||o--------------|------------------|--------------|----------------------o|
||---------------|------------------|--------------|-----------------------|
||--7------------|------------------|--------------|-----------------------|
||o-5------------|--7---------------|-2------------|-------------------0--o|
||--5------------|--5---------------|-0------------|-/7------0-[4]-----0---|


w/Rhy Fig 3
  W              +H        +E  E A    +E  +E
|--------------|------------------------------|
|--------------|------------------------------|
|--------------|------------------------------|
|--------------|------------------------------|
|-4------------|-(4)-------(4)----------------|
|-2------------|-(2)-------(2)-0-2b4==(2)r(2)-|


                                     To Coda
                              To Double Coda
                     ~~~~~~~~~~~~~~~~~~~
  H.         Q       H.             +E  S S
|----------------|--------------------------||
|----------------|--------------------------||
|----------------|--------------------------||
|----------------|--------------------------||
|-2--------------|----------------------0-0-||
|-0----------0---|-/12-------------(12)-0-0-||


 Interlude
w/Rhy Fig 1 + Riff A x2
 Gtr III
  W                   +W
|-------------------|--------------------|
|-------------------|--------------------|
|-------------------|--------------------|
|-4-----------------|-(4)----------------|
|-2-----------------|-(2)----------------|
|-------------------|--------------------|


									              
D.S. al Coda
| W                    W
|-------------------|--------------------||


Interlude
Rhy Fig 1 + Rhy Fig 2 + Riff A x3.5


[ Tab from: http://www.guitartabs.cc/tabs/b/black_label_society/house_of_doom_tab_ver_3.html ]
   +W
    |
    /
    E       E      E      E      +E        E        Q
|-----------------------------------------------------------------||
|-----------------------------------------------------------------||
|--(2)--------------------2------(2)------------------------------||
|-----------4------------------------------4----------------------||
|------------------2--------------------------------2-------------||
|-----------------------------------------------------------------||
|
|   W
|-----------------------------------------------------------------||
|-----------------------------------------------------------------||
|-----------------------------------------------------------------||
|--(4)------------------------------------------------------------||
|--(2)------------------------------------------------------------||
|-----------------------------------------------------------------||
|
|   PM------------------------|
|   |-----6------| |-----6-----|  |------6-------|  |----6-----|
|   S  S  S S S  S S S  S S S  S  S   S  S S  S  S  S  S  S  S E
|-----------------------------------------------------------------||
|--------------------------------------------------10-12-14-10----||
|---------------------------------9--11-13-9-11-13----------------||
|------------------7-9-11-7-9-11----------------------------------||
|---7--9-11-7-9-11------------------------------------------------||
|-----------------------------------------------------------------||


   Guitar Solo
    Gtr I
           B7sus4                                          F#m
             Q   Q  E Q  E   +E  E E          E    E  E  E   E
             |   |  | |  |    |  | |          |    |  |  |   |
             /   /  / /  /    /  / /          /    /  /  /   /
    Gtr IV
             ~~~~~~~~~~~~~~~~~~~~
                                                             |--3--|
     a      +W                Q    E  a      +E   +Q     E  +S  S  S
||-------------------------|---------11b12==(11)-(11)---11r(11)p9----|
||o-14b16==(14)------------|-14r----------------------------------12-|
||-------------------------|-----------------------------------------|
||-------------------------|-----------------------------------------|
||o------------------------|-----------------------------------------|
||-------------------------|-----------------------------------------|


                       F#sus4                         F#m     E
           Q   Q  E Q  E    +E   E E  E           +E  Q       E
           |   |  | |  |     |   | |  |            |  |       |
           /   /  / /  /     /   / /  /            /  /       /
           ~~~~~~~~~~~~~~~~~~~~~~
   a      +W                +Q     E.   a     +S  +Q    S +S  E
|------------------------|--------------9b10==(9)-(9)---9r(9)-7-|
|-12b14==(12)------------|-(12)r--------------------------------|
|------------------------|--------------------------------------|
|------------------------|--------------------------------------|
|------------------------|--------------------------------------|
|------------------------|--------------------------------------|


                       Esus4     E
           Q   Q  E Q  E   +Q.   E +E E Q
           |   |  | |  |    |    |  | | |
           /   /  / /  /    /    /  / / /
           ~~~~~~~~~~~~~~~~~~~~
   a      +W                W
|------------------------|-----------------|
|-10b12==(10)------------|-10r-------------|
|------------------------|-----------------|
|------------------------|-----------------|
|------------------------|-----------------|
|------------------------|-----------------|

w/Riff A
               |-3--|                                |-----6-----|
   a      +E   S  S S  T T  T T T S.  T  T  T T T S. S  S S  S S S
|--------------7---------------------------------------------------|
|-10b12==(10)r---10p7-10p7-10p7---7---9p=7-10p7---7--7----7-10p7---|
|-------------------------------9---------------9------10--------9-|
|------------------------------------------------------------------|
|------------------------------------------------------------------|
|------------------------------------------------------------------|


                                    ~~~~~~                         ~~~~
   |-----6-----|       |-3--|
   S   S S S S S +S  S S  S S  S  S E +E  S S      Q.   E  a      +Q.      +E
|----------------------------------------------||-----17b19==(17)-----(17)r\
|--7--10-7-9-7-7-(7)-7-7----------------------o||10-------------------------
|------------------------10-9--7--9-7-(7)------||---------------------------
|-----------------------------------------0-0--||---------------------------
|-----------------------------------------0-0-o||---------------------------
|----------------------------------------------||---------------------------
|
|                                                  Q.   E         +E  E Q
|----------------------------------------------||-(0)---0---------(0)-0-0---
|---------------------------------------------o||-(0)---0---------(0)-0-0---
|----------------------------------------------||-(2)---1---------(1)-1-1---
|----------------------------------------------||-(2)---2---------(2)-2-2---
|---------------------------------------------o||-(2)---2---------(2)-2-2---
|----------------------------------------------||-(0)---0---------(0)-0-0---


w/Riff A
  |-3-|     |----6----|  |----6-----| |-----6-----|
  S S S S S S S S S S S  S  S S S S S S S S +S  S S
|---------------------------------------------------|
|-----------------------------------------------7-7-|
|-------------------------------7-7-7-9-7-9-(9)-----|
|-----------------7---7--9--7-9---------------------|
|-0-5-6-7-7-9-7-9---9-------------------------------|
|---------------------------------------------------|


                                      D.S.S. al Dbl. Coda
                                        ~~~~~
   |--3--|         |----6----|
   S  S  S  +S  S  S S S S S S  a      +H
|---------------7-10-7-9-7-7---------------------||
|-10--7-10-(10)----------------10b12==(10)r------||
|------------------------------------------------||
|------------------------------------------------||
|------------------------------------------------||
|------------------------------------------------||


   Outro
    &&
Riff A + Rhy Fig 1 + Rhy Fig 2 x4

Gtr I, II
  W
|-0----*|
|-0----*|
|-2----*|
|-4----*|
|-2----*|
|------*|
|
| Gtr III
| W
|------*|
|------*|
|-4----*|
|-4----*|
|-2----*|
|------*|
Comments