Black Label Society - Graveyard Disciples Chords & Tabs

 

Graveyard Disciples Chords & Tabs

Black Label Society Chords & Tabs

Version: 2 Type: Tab 0 ratings
1 star 2 stars 3 stars 4 stars 5 stars
comments

Graveyard Disciples Tab

   
Artist: Black Label Society
Song: Graveyard Disciples
Album: 1919 Eternal

Tabbed by: Justin Tyler aka TroubledWine  and
Zage 


From: www.BlackLabelSociety.net


Tune Down 1 Whole Step...Drop Low E down another whole step.

C G C F A D



Main Riff/Verse
D------------------------------------------------------------------------------------------
A------------------------------------------------------------------------------------------
F------------------------------------------------------------------------------------5/7/5-
C----x-x-x----0---0---0----0----0----0---0---0---1----0---0---0----0----0----0---0---------
G----x-x-x----0---0---0----0----0----0---0---0---1----0---0---0----0----0----0---0---3/5\3~
C----x-x-x----0---0---0----0----0----0---0---0---1----0---0---0----0----0----0---0---------
[ Tab from: http://www.guitartabs.cc/tabs/b/black_label_society/graveyard_disciples_tab_ver_2.html ]
Chorus
D------------------------------------------------------------------------
A------------------------------------------------------------------------
F------------------------------------------------------------------------
C----5------6------5------3----------5------6------5------3--------------
G----5------6------5------3----------5------6------5------3-------3~~~---
C----5------6------5------3----------5------6------5------3--------------


And the chorus is:


D------------------------------------
A------------------------------------
F---------12----------------8-------- x 3
C-----12-----12----------8----8------
G--10-----------10-----6---------6---
C------------------------------------


D------------------------------------
A------------------------------------
F---------12----------------10-------
C-----12-----12----------10----10----
G--10-----------10-----8----------8--
C------------------------------------

pre-solo and solo-riffs


D----------------------------------------------
A----------------------------------------------
F----------------------------------------------
C----------------------------------------------
G---5P3-5~--5P3-5~--3-5/7~--5P3-5~--3H5P3--3-7~
C----------------------------------------------

when the solo is played youll have to move the riff two frets upper two 
times(to seventh and to nineth fret)
Comments