Black Label Society - Graveyard Disciples Chords & Tabs

 

Graveyard Disciples Chords & Tabs

Black Label Society Chords & Tabs

Version: 1 Type: Tab 3 ratings
1 star 2 stars 3 stars 4 stars 5 stars
comments

Graveyard Disciples Tab

Song: Graveyard Disciples
By: Black Label Society
Album: 1919 Eternal

tuning: i think you tune down 2 whole steps

e--------------------------------------------------------------------
B--------------------------------------------------------------------
G--------------------------------------------------------------------
D-2-2-2-2--2-2-2-2-2--3--2-2-2-2--2-2-2-2-2--------------------------
A-2-2-2-2--2-2-2-2-2--3--2-2-2-2--2-2-2-2-2--5-7-5-------------------
E-0-0-0-0--0-0-0-0-0--1--0-0-0-0--0-0-0-0-0--------------------------

chorus
[ Tab from: http://www.guitartabs.cc/tabs/b/black_label_society/graveyard_disciples_tab.html ]
e-----5--------------------------------------------------------------
B----5-5--5----------------------------------------------------------
G-------------5------------------------------------------------------
D--7----7----7-------------------------------------------------------
A-----------8--------------------------------------------------------
E--------------------------------------------------------------------

brigde

e--------------------------------------------------------------------
B--------------------------------------------------------------------
G--------------------------------------------------------------------
D--------------------------------------------------------------------
A--5h7--5h7----------------------------------------------------------
E--------------------------------------------------------------------

that's pretty much all of it, except the solo, hope this does it for 
you.

Comments