Black Label Society - Funeral Bell Chords & Tabs

 

Funeral Bell Chords & Tabs

Black Label Society Chords & Tabs

Version: 1 Type: Tab 0 ratings
1 star 2 stars 3 stars 4 stars 5 stars
comments

Funeral Bell Tab

   
Artist: Black Label Society
Album: The Blessed Hellride
Title: Funeral Bell

Tabbed By: Eric Benson(Eric@SizeMattersNow.com)

Tuning: Bb Ab Db Gb Bb Eb             
       
(Guitar 1) (Muted)                                   (3 X's)   
|---------------------------------------------------------------|
|---------------------------------------------------------------| 
|---------------------------------------------------------------|  
|----4-4-4-4-4-----4-4-4-4-4-----4-4-4-4-4-----4-4-4-4-4--------|  
|----2-2-2-2-2-----2-2-2-2-2-----2-2-2-2-2-----2-2-2-2-2--------|  
|-0--0-0-0-0-0--0--0-0-0-0-0--0--0-0-0-0-0--0--0-0-0-0-0--------|



 (Muted)                                          
|---------------------------------------------------------------|
|---------------------------------------------------------------| 
|----------------------------------------------------2----------|  
|----4-4-4-4-4-----4-4-4-4-4-----4-4-4-4-4-----------2----------|  
|----2-2-2-2-2-----2-2-2-2-2-----2-2-2-2-2-----------0----------|  
|-0--0-0-0-0-0--0--0-0-0-0-0--0--0-0-0-0-0--0-h3h5--------------|



(Guitar 1) (Muted)   
|---------------------------------------------------------------|
|---------------------------------------------------------------| 
|---------------------------------------------------------------|  
|----4-4-4-4-4-----4-4-4-4-4-----4-4-4-4-4-----4-4-4-4-4--------|  
|----2-2-2-2-2-----2-2-2-2-2-----2-2-2-2-2-----2-2-2-2-2--------|  
|-0--0-0-0-0-0--0--0-0-0-0-0--0--0-0-0-0-0--0--0-0-0-0-0--------|
guitar 2 enters after (2 X's)
|---------------------------------------------------------------|
|---------------------------------------------------------------|
|---------------------------------------------------------------|
|--9--------7-------2---4---------------------------------------|
|--7--------5-------0---2---------------------------------------|
|---------------------------------------------------------------|



(Guitar 1) (Muted)                                       
|---------------------------------------------------------------|
|---------------------------------------------------------------| 
|-------------------------------------------------------------2-|  
|----4-4-4-4-4-----4-4-4-4-4-----4-4-4-4-4-----4-4-4-4-4------2-|  
|----2-2-2-2-2-----2-2-2-2-2-----2-2-2-2-2-----2-2-2-2-2------0-|  
|-0--0-0-0-0-0--0--0-0-0-0-0--0--0-0-0-0-0--0--0-0-0-0-0-3h5----|



(Guitar 1) (Muted)                                      
|---------------------------------------------------------------|
|---------------------------------------------------------------| 
|---------------------------------------------------------------|  
|-----------4-4-4-4-4-----4-4-4-4-4-----4-4-4-4-4-----4-4-4-4-4-|  
|-----------2-2-2-2-2-----2-2-2-2-2-----2-2-2-2-2-----2-2-2-2-2-|  
|--5ph---0--0-0-0-0-0--0--0-0-0-0-0--0--0-0-0-0-0--0--0-0-0-0-0-|
   
Verse:  Drinking    drugged up          completely shot to hell (ect.).

     Left  Behind                   Aint nothing left to sell
[ Tab from: http://www.guitartabs.cc/tabs/b/black_label_society/funeral_bell_tab.html ]
|---------------------------------------------------------------|
|---------------------------------------------------------------|
|--2---------2--------2-----------------------------------------|
|--2---------2--------2-----------------------------------------|
|--0---------0--------0-----------------------------------------|
|----3h5b-------3h5b-------3ph---5ph----3ph---------------------|


chorus:
|--------------------------------------------------------------|
|---------------------3---3------------------------------------|
|------------4--------2---2---2-2------------------------------|
|------------4----2---0---0---2-2------------------------------|
|xxxxxx------2----2---0---0---0-0------------------------------|
|xxxxxx-------------------------------5ph---5ph----------------|
pick scraps 


Solo:
                                                     2 x's       
|-12-7-12-7------------7---10-7-10-7----------------------------|
|--------------10-7-10---------------10-7----7------------------|
|-----------------------------------------10--------------------|
|---------------------------------------------------------------|
|---------------------------------------------------------------|
|---------------------------------------------------------------|






|--------7----------------7-------------------------------------|
|--10b-----10-7--------10---10-7------------------10-7----------|
|----------------10--------------9-10-9-10-7---9b------9-7------|
|---------------------------------------------------------------|
|---------------------------------------------------------------|
|---------------------------------------------------------------|

           repeat 3x's   repeat 6 x's      repeat 7 x's
|----------------------|-------------|--10-7-10-7-------|-------|
|---7----7----7--------|-----10-7----|------------10-7--|--13b--|
|-9b---9b---9b---------|--9b------9b-|------------------|-------|
|----------------------|-------------|------------------|-------|
|----------------------|-------------|------------------|-------|
|----------------------|-------------|------------------|-------|

|-----17------17------17------17-----17-------------------------|
|-17b-----17b-----17b-----17b----17b----17----15----17----------|
|------------------------------------------16----16-------------|
|---------------------------------------------------------------|
|---------------------------------------------------------------|
|---------------------------------------------------------------|

|-----17------17------17------17-----17-------------------------|
|-17b-----17b-----17b-----17b----17b-----17b--------------------|
|---------------------------------------------------------------|
|---------------------------------------------------------------|
|---------------------------------------------------------------|
|---------------------------------------------------------------|

|-----17------17------17------17-----17--17--17-----------------|
|-17b-----17b-----17b-----17b----17b-----17b-17-----------------|
|---------------------------------------------------------------|
|---------------------------------------------------------------|
|---------------------------------------------------------------|
|---------------------------------------------------------------|
Comments