Black Label Society - Fire It Up Chords & Tabs

 

Fire It Up Chords & Tabs

Black Label Society Chords & Tabs

Version: 1 Type: Bass Tab

Fire It Up Bass Tab

BASS
BLACK LABEL SOCIETY
FIRE IT UP
ALBUM-MAFIA

TABBED BY BMILNE
EADG

MAIN RIFF
G---------------------------------------------------------------------------|
D---------------------------------------------------------------------------|
A-----------------------------------------------2-2-2-2---------------------|
E-2-2-2-2-2-2-2-2-2-2-2-2-2-2-2-2-2-2-2-0-0-0-0---------0-0-0-0-0-0-0-0-0-0-|
[ Tab from: http://www.guitartabs.cc/tabs/b/black_label_society/fire_it_up_btab.html ]
G-----------------------------|
D-----------------------------|
A-----------------------------|
E-0-0-0-0-0-0-0-0-0-0-0-0-0---|

RIFF
G-----------------------------------|
D-----------------------------------|
A-----------------------------------|
E-5-5-5-5-5-5-5-5-7-7-7-7-7-7-7-7---|

RIFF
G----------------------|
D----------------------|
A----------------------|
E-0-0-2-0-2--0-0-2-0-2-|

THATS ALL.