Black Label Society - Dirt On The Grave Chords & Tabs

 

Dirt On The Grave Chords & Tabs

Black Label Society Chords & Tabs

Version: 1 Type: Tab 0 ratings
1 star 2 stars 3 stars 4 stars 5 stars
comments

Dirt On The Grave Tab

BLACK LABEL SOCIETY

DIRT ON THE GRAVE

MAFIA

TUNEING  DGCFAD


----------------------------------------------------------------------------------------------|
------3-------2---3--------3---------2--3-----------3--------2--3-----------3----------2---3--|
-4-------4------------------------------------------------------------------------------------|
----------------------------------------------------------------------------------------------|
-----------------------5----------5------------0----------0-------------2------------2--------|
----------------------------------------------------------------------------------------------|

hold this first 14 and pick  the string again while slowly moving the string back down
----------------------------------------|
------14^---14---14^--14---12--10---12--|
----------------------------------------|
----------------------------------------|
----------------------------------------|
----------------------------------------|

solo
--------------------------------------------------------------------------|
--15-15-15-15-15-15---15----14-14-14-14-14-14---14---12-12-12-12--10--12--|
--------------------------------------------------------------------------|
--------------------------------------------------------------------------|
--------------------------------------------------------------------------|
--------------------------------------------------------------------------|
[ Tab from: http://www.guitartabs.cc/tabs/b/black_label_society/dirt_on_the_grave_tab.html ]
--------------------------------------------------------------------------|
-15-15-15-15-15-15--15-----14-14-14-14-14-14----17--15---14---10---12-----|
--------------------------------------------------------------------------|
--------------------------------------------------------------------------|
--------------------------------------------------------------------------|
--------------------------------------------------------------------------|

--14-----12----10-----9--10---9-----14-12--10---14--12-10-----12-10-9--12-|
--12-----12-----0------0---0---0------------------------------------------|
--------------------------------------------------------------------------|
--------------------------------------------------------------------------|
--------------------------------------------------------------------------|
--------------------------------------------------------------------------|

10-9---10-9-7--10-9-7-----------------------------------------------------|
------------------------10\12---------------------------------------------|
--------------------------------------------------------------------------|
------------------------------16-16-16-16-16-16-16---14-14-14-14-14-------|
--------------------------------------------------------------------------|
--------------------------------------------------------------------------|

---------------------------|
---------------------------|
---------------------------|
-11---12-12-12-12----------|
---------------------12-14-|
---------------------------|
Comments