Black Label Society - Blessed Hell Ride Chords & Tabs

 

Blessed Hell Ride Chords & Tabs

Black Label Society Chords & Tabs

Version: 1 Type: Tab 1 rating
1 star 2 stars 3 stars 4 stars 5 stars
comments

Blessed Hell Ride Tab

   
Transcribed by www.mikesguitarsite.co.uk

Words and Music by Zakk Wylde


Gtr I (D A D G B E) - 'Zakk Wylde - Rhythm Steel String Acoustic'
Gtr II (E A D G B E) - 'Zakk Wylde - Lead Clean Electric'
Gtr III (E A D G B E) - 'Zakk Wylde - Lead Clean Electric'

Intro
  Q=78
 4/4
  Gtr I
  S S E E. S +S  S E E S S   S S E E S S S S E E S S
|---0-0-0--0-(0)-0-0-0-0-0-|-------0-0-0-0-0-0-0-0-0-|
|-5S7-7-7--7-(7)-7-7-7-7-7-|-0-0---6-6-6-6-6-6-6-6-0-|
|-0-0-0-0--0-(0)-0-0-0-0-0-|-0-0---5-5-5-5-5-5-5-5-0-|
|-5S7-7-7--7-(7)-7-7-7-7-7-|-0-0-0-0-0-0-0-0-0-0-0---|
|-3S5-5-5--5-(5)-5-5-5-5-5-|-0-8-8-8-8-8-8-7-7-7-7---|
|-0-0-0-0--0-(0)-0-0-0-0-0-|-------------------------|
|-Rhy Fig 1


  S S E E S S +S  S E E S S   S S E E S S S S E E S S
|-------0-0-0-(0)-0-0-0-0-0-|-------0-0-0-0-0-0-0-0-0-|
|-0-0-0-7-7-7-(7)-7-7-7-7-7-|-0-0---6-6-6-6-6-6-6-6-0-|
|-0-0-0-0-0-0-(0)-0-0-0-0-0-|-0-0---5-5-5-5-5-5-5-5-0-|
|-5S7-7-7-7-7-(7)-7-7-7-7-7-|-0-0-0-0-0-0-0-0-0-0-0---|
|-3S5-5-5-5-5-(5)-5-5-5-5-5-|-0-8-8-8-8-8-8-7-7-7-7---|
|-0-0-0-0-0-0-(0)-0-0-0-0-0-|-------------------------|
                                        end Rhy Fig 1-|

Rhy Fig 1


   Verses
    S E. E. S +S  S E E S S   S S E E. S +S  S S S E S S
||-------0--0-(0)-0-0-0-0-0-|-------0--0-(0)-0-0-0-0-0-0-|
||o------7--7-(7)-7-7-7-7-7-|-------6--6-(6)-6-6-6-6-0-0-|
||--0-0--0--0-(0)-0-0-0-0-0-|---0-0-5--5-(5)-5-5-5-5-0-0-|
||--5s7--7--7-(7)-7-7-7-7-7-|---0-0-0--0-(0)-0-0-0-0-0-0-|
||o-3s5--5--5-(5)-5-5-5-5-5-|-x-8-8-8--8-(8)-7-7-7-7-----|
||--0----0--0-(0)-0-0-0-0-0-|-x--------------------------|
 |-Rhy Fig 2

  S E. E. S +S  S E E S S   S S E E. S +S  S S S E S S
|------0--0-(0)-0-0-0-0-0-|-------0--0-(0)-0-0-0-0-0-0-|
|------7--7-(7)-7-7-7-7-7-|-------6--6-(6)-6-6-6-6-6-0-|
|-0-0--0--0-(0)-0-0-0-0-0-|-0-0-0-5--5-(5)-5-5-5-5-5-0-|
|-5s7--7--7-(7)-7-7-7-7-7-|-0-0-0-0--0-(0)-0-0-0-0-0-0-|
|-3s5--5--5-(5)-5-5-5-5-5-|-0-8-8-8--8-(8)-7-7-7-7-7---|
|-0----0--0-(0)-0-0-0-0-0-|----------------------------|
                                         end Rhy Fig 2-|

Rhy Fig 2


 Pre-Chorus
  Q  E. S +S  S E E S S   Q  E. S +S  S S S S S S S
|-2--2--2-(2)-2-2-2-2-3-|-2--2--2-(2)-2-2-2-0h2-----||
|-3--3--3-(3)-3-3-3-3-3-|-3--3--3-(3)-3-3-3-3---0-0-||
|-2--2--2-(2)-2-2-2-2-2-|-2--2--2-(2)-2-2-2-2---0---||
|-0--0--0-(0)-0-0-0-0-0-|-0--0--0-(0)-0-0-0-0-------||
|-0---------------------|---------------------------||
|-0---------------------|---------------------------||


 Chorus
  S E. E. S +S  S E E S S   Q  E S S +S  E. E S S
|-0----0--0-(0)-0-0-0-----|-0--0-0-0-(0)-0--0-----|
|-0h1--1--1-(1)-1-1-1-0-0-|-3--3-3-3-(3)-3--3-----|
|-2----2--2-(2)-2-2-2-0-0-|-0--0-0-0-(0)-0--0-0-0-|
|-2----2--2-(2)-2-2-2-0-0-|-0--0-0-0-(0)-0--0-0-0-|
|-0----0--0-(0)-0-0-0-----|-----------------------|
|-------------------------|-5--5-5-5-(5)-5--5-----|


Substitute Rhy Fill 1 on repeat (see below)
  E    E E S S +S  S E E S S
|-2----2-2-2-2-(2)-2-2-2-2-3--|
|-3----3-3-3-3-(3)-3-3-3-3-3--|
|-2----2-2-2-2-(2)-2-2-2-2-2--|
|-0----0-0-0-0-(0)-0-0-0-0-0--|
|-----------------------------|
|-----------------------------|


  E E E S S +S  S E E S S   S E. E. S +S  S E E S S
|-2-2-2-2-2-(2)-2-2-2-----|-0----0--0-(0)-0-0-0-----|
|-3-3-3-3-3-(3)-3-3-3-0-0-|-0h1--1--1-(1)-1-1-1-0-0-|
|-2-2-2-2-2-(2)-2-2-2-0-0-|-2----2--2-(2)-2-2-2-0-0-|
|-0-0-0-0-0-(0)-0-0-0-0-0-|-2----2--2-(2)-2-2-2-0-0-|
|-------------------------|-0----0--0-(0)-0-0-0-----|
|-------------------------|-------------------------|


  Q  E S S +S  S S S S S S S
|-0--0-0-0-(0)-0-0-0-0-0-0-0--||
|-3--3-3-3-(3)-3-3-3-3-3-3-3--||
|-0--0-0-0-(0)-0-0-0-0-0-0-0--||
|-0--0-0-0-(0)-0-0-0-0-0-0-0--||
|-----------------------------||
|-5--5-5-5-(5)-5-5-5-5-5-5-5--||


  1.
	Rhy Fig 1 end Reapeat Bars.
	
	

  2.
  S S E E S S +S  S E E S S   E E E S S +S  S E E S S
|-0-0-0-0-0-0-(0)-0-0-0-0-0-|-0-0-0-0-0-(0)-0-0-0-----|
|-7-7-7-7-7-7-(7)-7-7-7-7-8-|-7-7-7-7-7-(7)-7-7-7-0-0-|
|-0-0-0-0-0-0-(0)-0-0-0-0-0-|-0-0-0-0-0-(0)-0-0-0-0-0-|
|-7-7-7-7-7-7-(7)-7-7-7-7-7-|-7-7-7-7-7-(7)-7-7-7-0-0-|
|-5-5-5-5-5-5-(5)-5-5-5-5-5-|-5-5-5-5-5-(5)-5-5-5-----|
|---------------------------|-------------------------|
|-Rhy Fill 1                           end Rhy Fill 1-|


  S E. E S S +S  S E E S S   W
|-0----0-0-0-(0)-0-0-0-----|------||
|-0h1--1-1-1-(1)-1-1-1-----|-3----||
|-2----2-2-2-(2)-2-2-2-x-x-|-0----||
|-2----2-2-2-(2)-2-2-2-x-x-|-0----||
|-0----0-0-0-(0)-0-0-0-x-x-|------||
|--------------------------|-5----||


    S S E E S S +S  S E E S S   S S E E S S S S E E S S
||------------0-(0)-0-0-0-0---|-------0-0-0-0-0-0-0-0-0---||
||o-----------7-(7)-7-7-7-7-0-|-0-0-0-6-6-6-6-6-6-6-6-0--o||
||------------0-(0)-0-0-0-0-0-|-0-0-0-5-5-5-5-5-5-5-5-0---||
||--5S7-7-7---7-(7)-7-7-7-7-0-|-0-0-0-0-0-0-0-0-0-0-0-0---||
||o-3S5-5-5---5-(5)-5-5-5-5-0-|-0-8-8-8-8-8-8-7-7-7-7----o||
||--0-0-0-0-0-0-(0)-0-0-0-0---|-----0---------------------||


 Guitar Solo
 w/Rhy Fig 1 x2
  Gtr II
                                 ~~~~~~~~~~~~~
  Q      E       +E      S       E.       +Q
|-------------------------------------------------|
|-------13----------------------------------------|
|-------12b13r==(12)----10b10.5-------------------|
|-------------------------------12-------(12)-----|
|-------------------------------------------------|
|-------------------------------------------------|
|
| Gtr III
| Q      Q              +E           +E    Q
|-------------------------------------------------|
|-------15pb18=========(15)r========(15)----------|
|-------------------------------------------------|
|-------------------------------------------------|
|-------------------------------------------------|
|-------------------------------------------------|


                                                                            ~~
   S       S   S    S    S   S  S  S  S       S    S     +T   T  S  S       E
|--------------------------------------------------------------------------------|
|--------------------------------------------------------------------------------|
|------------------------------------10------10---12b13r(12)p10-12-10b10.5-------|
|-------------10--------12-----10h12---------------------------------------12----|
|-10h=====12------(12)------12---------------------------------------------------|
|--------------------------------------------------------------------------------|
|
|  ~~~~~~~~~~~~~~~~                                                            ~~
|  E          +E        +E      E     S      +S    S      S      S  S       S  S
|-------------------------------------------------10-----------------------------|
|-15pb18=====(15)r=====(15)----------13b15==(13)r--------13-----13---------------|
|------------------------------------------------------------------13------12-10-|
|--------------------------------------------------------------------------------|
|--------------------------------------------------------------------------------|
|--------------------------------------------------------------------------------|


    ~~~~                        ~~~~~~~~~~~~~~~~~
   +Q     A A  E     +E     S   E.           +Q
|-------------------------------------------------------|
|-------------13----------------------------------------|
|-------------12b13r(12)---10---------------------------|
|-(12)------x------------------12-----------(12)--------|
|---------x---------------------------------------------|
|-------------------------------------------------------|
|
|   ~~~~
|  +H                       E       Q             +E
|-------------------------------------------------------|
|----------------------------------15pb17.5r=====(15)---|
|-(10)--------------------------------------------------|
|-------------------------------------------------------|
|-------------------------------------------------------|
|-------------------------------------------------------|

[ Tab from: http://www.guitartabs.cc/tabs/b/black_label_society/blessed_hell_ride_tab.html ]
                                                      ~~
      |--3--|
   S  T  T  T  S  S  S  S  S  S  S  T     T  e        Q
|-----------------------------------------------------------|
|-13-10h13p10----10-----------------------------------------|
|-------------13----13-12-10----------------12b14----10-----|
|----------------------------12-10-12p===10-----------------|
|-----------------------------------------------------------|
|-----------------------------------------------------------|
|
|                                                     ~~
|  H                             S  S        S     S  Q
|-------------------------------17--------------------------|
|----------------------------------18b19----15-------15-----|
|-------------------------------------------------17--------|
|-----------------------------------------------------------|
|-----------------------------------------------------------|
|-----------------------------------------------------------|


                              ~~~~~~~~~~~~~~~~~~~~~
  Q     A A  E     +E     S   E.               +E      E
|----------------------------------------------------------|
|-----------13---------------------------------------------|
|-----------12b13r(12)---10--------------------------------|
|---------x------------------12---------------(12)---------|
|-------x--------------------------------------------------|
|----------------------------------------------------------|
|
|                                                      ~~~~~
| H                       S   S     +T   T  S   S   S  E
|------------------------20--------------------------------|
|----------------------------20b22r(20)p18-----20--18------|
|------------------------------------------19---------19---|
|----------------------------------------------------------|
|----------------------------------------------------------|
|----------------------------------------------------------|


                                                               ~~~
                       |--3--|
    S      +S    S  S  T  T  T  S  S  S  S       S    S  S  s  E.
|---------------10------------------------------------------------------|
|--13b15==(13)r----13-10h13p10----10-----------------------13-13--------|
|------------------------------13----13-12------10---12s14--------------|
|-----------------------------------------------------------------------|
|-----------------------------------------------------------------------|
|-----------------------------------------------------------------------|
|
|~~~~~~~~~                                                         ~~
|  +Q                  Q                 S      +S    S  S  S  S   E
|----------------------------------------------------10-----------------|
|---------------------------------------13b15==(13)r----13--------------|
|-(19)-----------------------------------------------------13-12--10----|
|-----------------------------------------------------------------------|
|-----------------------------------------------------------------------|
|-----------------------------------------------------------------------|


                                  ~~~~~~~~~~
    E     S   S  E     +E     S   E.    +E  S S
|-----------------------------------------------|
|---------------13------------------------------|
|---------------12b14r(12)---10-----------------|
|---x-----x---x------------------12----(12)-----|
|---x-----x---x---------------------------------|
|-------------------------------------------0s8-|
|
|   ~~~~
|  +E    +Q             E     H
|-----------------------------------------------|
|-----------------------------------------------|
|-(10)--(10)\-----------------------------------|
|-----------------------------------------------|
|-----------------------------------------------|
|-----------------------------------------------|


   PM------------------------------------------|
   T  T  T  T  T  T  T  T  T  T  T  T  T  T  T  T  T  T  T  T  S        +S      S  S     S   S
|---------------------------------------------------------------------------------------------------||
|---------------------------------------------------------------------------------------------------||
|-------------------------------------------------------------12b13r===(12)----10-------------------||
|-------------------------------------10-10-12-12-10-10-10-10---------------------12----10h=12------||
|--------------8--8-10-10-11-11-12-12---------------------------------------------------------------||
|--8-10-10-10---------------------------------------------------------------------------------------||
|
|  PM-----------------------------------------------------------------------|
|                                                                                            |-3-|
|  T  T  T  T  T  T  T  T  T  T  T  T  T  T  T  T  T  T  T  T  T     T   T   T  s  E        +S   T
|-13-13-10-10---------------------------------------------------------------------------------------||
|-------------13-13-10-10---------------------------------------------------------------------------||
|-------------------------12-12-10-10---------------------------------------------12b14r===(12)p10--||
|-------------------------------------12-12-10-10-----------------------10--10-12-------------------||
|-------------------------------------------------12-12-10-10-12----12------------------------------||
|---------------------------------------------------------------------------------------------------||


 Bridge
      ~~~~~~~~~~~~~~~~~~~~~~~~~~~~~~~~~
   S  E.  +H.                      +Q     Q      H
|-------------------------------|-----------------------------|
|-------------------------------|-----------------------------|
|-------------------------------|-----------------------------|
|-10h12--(12)-------------------|-(12)------------------------|
|-------------------------------|-----------------------------|
|-------------------------------|-----------------------------|
|
|  ~~~
|  W                                W
|-------------------------------|-----------------------------|
|-------------------------------|-----------------------------|
|-------------------------------|-----------------------------|
|-12----------------------------|-----------------------------|
|-------------------------------|-----------------------------|
|-------------------------------|-----------------------------|
|
|  Q       E  S S +S  S E E S S     S S E E S S +S  S E E S S
|--0-------0--0-0-(0)-0-0-0-0-0-|---0-----0-0-0-(0)-0-0-0-0-0-|
|--5-------5--5-5-(5)-5-5-5-5-5-|---5s7-7-7-7-7-(7)-7-7-7-7-7-|
|--0-------0--0-0-(0)-0-0-0-0-0-|---0---0-0-0-0-(0)-0-0-0-0-0-|
|--5-------5--5-5-(5)-5-5-5-5-5-|---5s7-7-7-7-7-(7)-7-7-7-7-7-|
|--3-------3--3-3-(3)-3-3-3-3-3-|---3s5-5-5-5-5-(5)-5-5-5-5-5-|
|-------------------------------|-------0-0-0-0-(0)-0-0-0-0-0-|
|-Rhy Fig 3                                     end Rhy Fig 3-|

Rhy Fig 3 x2

  Q  E. S S S E E S S   Q  E. S S S E S S E
|-0--0--0-0-0-0-0-----|-0--0--0-0-0-0-0-0-0-||
|-5--5--5-5-5-5-5-0-0-|-3--3--3-3-3-3-3-3-3-||
|-0--0--0-0-0-0-0-0-0-|-0--0--0-0-0-0-0-0-0-||
|-5--5--5-5-5-5-5-0-0-|-0--0--0-0-0-0-0-0-0-||
|-3--3--3-3-3-3-3-----|---------------------||
|---------------------|-5--5--5-5-5-5-5-5-5-||


 Chorus
  Q  E. S +S  S E E S S   Q  E. S +S  S E E S S   S S E E S S +S  S E E S S
|-0--0--0-(0)-0-0-0-----|-0--0--0-(0)-0-0-0-----|-0-0-0-0-0-0-(0)-0-0-0-0-0-|
|-1--1--1-(1)-1-1-1-x-x-|-3--3--3-(3)-3-3-3-x-x-|-7-7-7-7-7-7-(7)-7-7-7-7-7-|
|-2--2--2-(2)-2-2-2-x-x-|-0--0--0-(0)-0-0-0-x-x-|-0-0-0-0-0-0-(0)-0-0-0-0-0-|
|-2--2--2-(2)-2-2-2-x-x-|-0--0--0-(0)-0-0-0-x-x-|-7-7-7-7-7-7-(7)-7-7-7-7-7-|
|-0--0--0-(0)-0-0-0-x-x-|-------------------x-x-|-5-5-5-5-5-5-(5)-5-5-5-5-5-|
|-----------------------|-5--5--5-(5)-5-5-5-----|-0-0-0-0-0-0-(0)-0-0-0-0-0-|



  S S E E S S E E S S S S   S E. E. S +S  S E E S S
|-0-0-0-0-0-0---0-0-0-0---|------0--0-(0)-0-0-0-0----|
|-7-7-7-7-7-7---8-7-7-7-0-|-0h1--1--1-(1)-1-1-1-1-0--|
|-0-0-0-0-0-0---0-0-0-0-0-|-2----2--2-(2)-2-2-2-2-0--|
|-7-7-7-7-7-7---7-7-7-7-0-|-2----2--2-(2)-2-2-2-2-0--|
|-5-5-5-5-5-5---5-5-5-5-0-|-0----0--0-(0)-0-0-0-0----|
|-0-0-0-0-0-0-------------|--------------------------|


  Q  E. S +S  S S S S S S S   Q  E S S S S E S S E
|-0--0--0-(0)-0-0-0-0-0-0-0-|-0--0-0-0-0-0-0-0-0-0-|
|-3--3--3-(3)-3-3-3-3-3-3-3-|-7--7-7-7-7-7-7-7-7-8-|
|-0--0--0-(0)-0-0-0-0-0-0-0-|-0--0-0-0-0-0-0-0-0-0-|
|-0--0--0-(0)-0-0-0-0-0-0-0-|-7--7-7-7-7-7-7-7-7-7-|
|---------------------------|-5--5-5-5-5-5-5-5-5-5-|
|-5--5--5-(5)-5-5-5-5-5-5-5-|-0--0-0-0-0-0-0-0-0-0-|


  E E E S S S S E S S S S   S E. E. S +S  S E E S S   W
|-0-0-0---0---0-0-0-0-----|------0--0-(0)-0-0-0-----|------||
|-7-7-7-x-7-x-7-7-7-7-0-0-|-0h1--1--1-(1)-1-1-1-0-0-|-3----||
|-0-0-0-x-0-x-0-0-0-0-0-0-|-2----2--2-(2)-2-2-2-0-0-|-0----||
|-7-7-7-x-7-x-7-7-7-7-0-0-|-2----2--2-(2)-2-2-2-0-0-|-0----||
|-5-5-5-x-5-x-5-5-5-5-0-0-|-0----0--0-(0)-0-0-0-----|------||
|-0-0-0-0-0-0-0-0-0-0-----|-------------------------|-5----||


   Outro
    S S E E S  S  +S  S E E S S   S S E S S S S S S E E S S
||--------0-0--0--(0)-0-0-0-0-0-|-------0-0-0-0-0-0-0-0-0-0--||
||o-0-0---7-7--7--(7)-7-7-7-7-7-|-------6-6-6-6-6-6-6-6-6-0-o||
||--0-0---0-0--0--(0)-0-0-0-0-0-|-0-0-0-5-5-5-5-5-5-5-5-5-0--||
||--5S7---7-7--7--(7)-7-7-7-7-7-|-0-0-0-0-0-0-0-0-0-0-0-0----||
||o-3S5-5-5-5--5--(5)-5-5-5-5-5-|-0-8-8-8-8-8-8-8-7-7-7-7---o||
||--0-0-0-0-0-(0)-(0)-0-0-0-0-0-|----------------------------||


    S S E E S  S  +S  S E E S S   S S E E S S S S E E S S     W
||--------0-0--0--(0)-0-0-0-0-0-|-------0-0-0-0-0-0-0-0-0--||-2----*|
||o-0-0---7-7--7--(7)-7-7-7-7-7-|-------6-6-6-6-6-6-6-6-0-o||-3----*|
||--0-0---0-0--0--(0)-0-0-0-0-0-|-0-0-0-5-5-5-5-5-5-5-5-0--||-2----*|
||--5S7---7-7--7--(7)-7-7-7-7-7-|-0-0-0-0-0-0-0-0-0-0-0----||-0----*|
||o-3S5-5-5-5--5--(5)-5-5-5-5-5-|-0-8-8-8-8-8-8-7-7-7-7---o||-0----*|
||--0-0-0-0-0-(0)-(0)-0-0-0-0-0-|--------------------------||-0----*|
Comments