Black Label Society - Bleed For Me Chords & Tabs

 

Bleed For Me Chords & Tabs

Black Label Society Chords & Tabs

Version: 3 Type: Tab 0 ratings
1 star 2 stars 3 stars 4 stars 5 stars
comments

Bleed For Me Tab

   
Artist: Black Label Society
Song: Bleed For Me
Album: 1919 Eternal


Tabbed by: ManOfDeath

http://www.BlackLabelSociety.net



Dropped C tuning: C G C F A D


D------------------------------------------------------------
A------------------------------------------------------------
F------------------------------------------------------------
C------------------------------------------------------------
G------------------------------------------3-5-3----3--------
C-3-0-0-0-0-0---3-0-0-0-0-0---3-0-0-0-0-0---------5---5-3-0--

D--------------------------------------------
A--------------------------------------------
F--------------------------------------------
C-------------------------------------------3
G-------------------------------------------3
C-3-0-0-0-0-0---3-0-0-0-0-0---3-0-0-0-0-0---3

Verse stuff :
[ Tab from: http://www.guitartabs.cc/tabs/b/black_label_society/bleed_for_me_tab_ver_3.html ]
D--------------------------------------
A--------------------------------------
F--------------------------12/13--12/13
C--3-0-0-5-0-0-3-0-0-6-0-0--x--x---x--x
G--3-0-0-5-0-0-3-0-0-6-0-0-10/11--10/11
C--3-0-0-5-0-0-3-0-0-6-0-0-------------

Then some chorus stuff:

D------------------------
A------------------------
F-7---/12--10--9/10\9--5-
C-7-----X---X--X--X-X--X-
G-5---/10---8--7-/8\7--3-
C-0----------------------

D-------------------------
A-------------------------
F-7---/12--10--9/10\9--5-3
C-7-----X---X--X--X-X--X-x
G-5---/10---8--7-/8\7--3-1
C-0-----------------------

I havent got time to figure out the whole solo but heres what I got:

D------------------------------------
A-------------------10-12-13-10-12-13 --13b
F-10-12-13-10-12-13------------------
C------------------------------------
G------------------------------------
C------------------------------------
Fool around with this part couple of time then bend the 13 on A string. 

Then fool around with this lick

D-15-13-15-13----------------------------------------------
A------------15-13-15-13-15-13-----------------------------
F------------------------------14-12-14-12-14-13-12--------
C---------------------------------------------------15-12~-
G----------------------------------------------------------
C----------------------------------------------------------
Comments