Black Label Society - Blackened Waters Chords & Tabs

 

Blackened Waters Chords & Tabs

Black Label Society Chords & Tabs

Version: 1 Type: Tab 0 ratings
1 star 2 stars 3 stars 4 stars 5 stars
comments

Blackened Waters Tab

"Blackened Waters" by Black Label Society
From the album: The Blessed Hellride

Tab transcription by The GtrPlynGd 

The tuning for this song is "EBGDAE"

INTRO/Verse
[ Tab from: http://www.guitartabs.cc/tabs/b/black_label_society/blackened_waters_tab.html ]
--------------------------------------------------
--------3------------0----------------------3-----
----2-----2-------------------2---------0-----2--- repeat and then 
--0---0-----3----3-3---3----3--3-3----3---3-----3- strum the last chord
--------------------------------------------------
---------------3----------1-----1---0-------------

then with distortion Zakk does:

                                
--------------------------------------------------
--------------------------------------------------
--------------------------------------------------
---------------------1/2--------------------------
--5^-7^-8^-10^-12^--12^--10-----------------------
-----------------------------1-3-1----------------
                             -P.M.

That's all i have as of right now. I'm not perfect, 
so feel free to add corrections.  

Comments