Black Label - Midnights Last Breath Chords & Tabs

 

Midnights Last Breath Chords & Tabs

Black Label Chords & Tabs

Version: 1 Type: Tab 0 ratings
1 star 2 stars 3 stars 4 stars 5 stars
comments

Midnights Last Breath Tab

   
Group: Black label
Song title: Midnights last breath
tuning standard.  (E,B,G,D,A,E)
country: USA
New, Gothic band, No cds out yet.

    Intro: clean
  |----12------13------12------11------12------13------12------11
  |----10-(X8)-10-(X8)-10-(X8)-10-(X8)-10-(X8)-10-(X8)-10-(X8)-10  Let ring
  |--------------------------------------------------------------
  |--------------------------------------------------------------
  |--------------------------------------------------------------
  |--------------------------------------------------------------

    Verse
  |--------------------------------------------------------------
  |--------------------------------------------------------------
  |--------------------------------------------------------------
  |--------5---6--6--5--5--------5---6--6--5--repeat-------------
  |---3--3--3----------------3--3--3-----------------------------
  |--------------------------------------------------------------

[ Tab from: http://www.guitartabs.cc/tabs/b/black_label/midnights_last_breath_tab.html ]
    Chorus
  |--------------------------------------------------------------------
  |--------------------------------------------------------------------
  |--------------------------------------------------------------------
  |----5--------6--------5--------4--------5--------6--------5--------4
  |----3-(X8)---3-(X8)---3-(X8)---3-(X8)---3-(X8)---3-(X8)---3-(X8)---3 let ring
  |--------------------------------------------------------------------



  |--------------------------------------------------------------------
  |--------------------------------------------------------------------
  |--------------------------------------------------------------------
  |---5--------6--------5--------4----7--------8--------7--------6-----
  |---3-(X8)---3-(X8)---3-(X8)---3----5-(X8)---5-(X8)---5-(X8)---5-----  
  |--------------------------------------------------------------------


    Outro
  |-----------12----13--13--12--12-----------12-----13-(X8)------------
  |---10--10-----10------------------10--10-----10---------------------
  |--------------------------------------------------------------------
  |--------------------------------------------------------------------
  |-------------------------------------------------------------0------ let ring
  |--------------------------------------------------------------------


   and thats it,  this song kicks @$$!!!!!!!!!!!!!!!!!!!
Comments